Табулатура Ария | Кода гитара табулатуры уроки тексты песен Ария текст lyrics песня аккорды песни ноты нота электрогитара струна  
   А Б В Г Д Е Ж З И К Л М Н О П Р С Т У Ф Х Ч Ш Ы Э Ю Я       Разные песни
1-9 A B C D E F G H I J K L M N O P Q R S T U V W Y Z      Все исполнители in english

    



группа Ария, Табулатура песни Кода

Продолжаем грести бабос на ботах в Telegram.
Только в этот раз есть вариант автоматизировать это дело, привлекая рефералов. Вы можете заработать если »

Группа: Ария - другие аккорды (629),   о группе (7 статей),   диски (18),   фотографии (92)
Табулатура песни: Кода
Просмотров: 2669
Прислал: Lyric (Lyric@nightmail.ru)




    
Ария - Кода
|-----------^12---------7--------------------------^12------|
|--------^12---------------------------^12-------------^12--|
|-----^12------------8--------------^12---^12---------------|
|---9----------------------------^12---------^12------------|
|-----------------9-----------------------------^12---------|
|-0---------------------------^12---------------------------|
|---------0---0-------2-------------------------------------|
|-------1-------0-------3-----------0-----------------------|
|-----2-----------0-------2--------0------------------------|
|---2-----------------0-------202-2-------------------------|
|-0------------------------------3--------------------------|
|-------------0---------------------------------------------|
|-----------^12---------7--------------------------^12------|
|--------^12---------------------------^12-------------^12--|
|-----^12------------8--------------^12---^12---------------|
|---9----------------------------^12---------^12------------|
|-----------------9-----------------------------^12---------|

Продолжаем грести бабос на ботах в Telegram.
Только в этот раз есть вариант автоматизировать это дело, привлекая рефералов. Вы можете заработать если »

|-0---------------------------^12---------------------------| |---------0---0--------------------0------------------------| |-------1-------0--------4----------------------------------| |-----2-----------0--------4--------------------------------| |---2------------------------4------------------------------| |-0----------------------2----------------------------------| |-------------0--------------------0------------------------| |----------8-------------2----------------------------------| |--------8-8----3----------3-----------0--------------------| |------9----------4----------2--------0---------------------| |---10--------------5----0-------020-2----------------------| |-----------------------------------3-----------------------| |-8-------------3-----------------------0-------------------| ... а дальше там идёт чьё-то хихиканье... P.S. ^-это флажолет

лекарство в аптеке
список лекарств






О сайтеАккордыХит-парадПоискУроки ФорумыИщу песню
ПрограммыСвежачок-сПодпискаСтатьи
Яндекс.Метрика