Табулатура Metallica | Low Mans Lyric  (2) гитара табулатуры уроки тексты песен Metallica текст lyrics песня аккорды песни ноты нота электрогитара струна  
   А Б В Г Д Е Ж З И К Л М Н О П Р С Т У Ф Х Ч Ш Ы Э Ю Я       Разные песни
1-9 A B C D E F G H I J K L M N O P Q R S T U V W Y Z      Все исполнители in english

    



группа Metallica, Табулатура песни Low Mans Lyric (2)

Работа в Европе для граждан РФ, Украины, СНГ

  • минимальная зарплата $500.
  • виза и контракт на полгода, возможно продление
  • проживание оплачивает работодатель
  • нужен только загранпаспорт
  • оформление 190 €
  • данное предложение - отличная возможность эмигрировать в Европу и закрепиться здесь навсегда.

  • Мы свяжемся с Вами по WhatsApp или Viber и ответим на любые вопросы.
    на нашем сайте можно почитать подробнее »

    Группа: Metallica - другие аккорды (225),   о группе (32 статей),   диски (11),   фотографии (49)
    Табулатура песни: Low Mans Lyric (2)
    Просмотров: 2955
    Прислал: DiaSpar (diaspar@i.com.ua)




        
    #----------------------------------PLEASE NOTE---------------------------------#
    #This file is the author's own work and represents their interpretation of the #
    #song. You may only use this file for private study, scholarship, or research. #
    #------------------------------------------------------------------------------##
                                     LOW MAN'S LYRIC
                                As recorded by Metallica
                              (From the 1997 Album RELOAD)
    Words and Music by James Hetfield, and Lars Ulrich
              Am                   Em                    G                  Cadd9
          x 0 2 2 1 0          0 2 2 0 0 0          3 2 0 0 3 3          x 3 2 0 3 3
              B5                    A                    D                    E
          x 2 4 4 x x          x 0 2 2 2 x          x x 0 2 3 2          0 2 2 1 0 0
              A5                   F5                   E5                   G6
          x 0 2 2 x x          1 3 3 x x x          0 2 2 x x x          3 2 0 0 3 0
             Dsus2
          x x 0 2 3 0
    Gtr I (Eb Ab Db Gb Bb Eb) - 'James'
    Gtr II (Eb Ab Db Gb Bb Eb) - 'Accordeon'
    Gtr III (Eb Ab Db Gb Bb Eb) - 'Kirk'
    Gtr IV (Eb Ab Db Gb Bb Eb) - 'Kirk'
    Gtr V (Eb Ab Db Gb Bb Eb) - 'Kirk'
     Intro
      Moderately Q=132
      N.C.               A
     3/4
      Gtr I
      W        W         H    +E  E   E Q.   Q
    |--------|--------||------------|-0---------|
    |--------|--------||------------|---2-------|
    |--------|--------||------------|--------2--|
    |--------|--------||----------2-|-----------|
    |--------|--------||-0----(0)---|-----------|
    |--------|--------||------------|-----------|
    
      G6                     Dsus2                  E5
      H    E E   E Q.   Q    H    E E   E Q.   Q    Q  Q  Q
    |----------|-0---------|----------|-0---------|----0-----|
    |----------|---3-------|----------|---3-------|-------0--|
    |----------|--------0--|-2------2-|--------2--|----------|
    |----------|-----------|-0----0---|-----------|----------|
    |--------2-|-----------|----------|-----------|----------|
    |-3----3---|-----------|----------|-----------|-0--------|
    
      G6         A                            G6
      Q  Q  Q     H    +E  E    E Q.     Q    H    E E    E Q.    Q
    |----0-----|-------------|--0-----------|----------|--0----------|
    |-------0--|-------------|----2---------|----------|----3--------|
    |----------|-------------|-----------2--|----------|----------0--|
    |----------|-----------2-|--------------|----------|-------------|
    |----------|--0----(0)---|--------------|--------2-|-------------|
    |-3--------|-------------|--------------|-3----3---|-------------|
    |
    | Gtr II
    | W           H     E  E    Q    Q   Q    H    E E    Q    Q  Q
    |----------|--------7--9-|-10----9------|------7-9-|-10----9--7--|
    |----------|-10----------|----------10--|-8--------|-------------|
    |----------|-------------|--------------|----------|-------------|
    |----------|-------------|--------------|----------|-------------|
    |----------|-------------|--------------|----------|-------------|
    |----------|-------------|--------------|----------|-------------|
    
      Dsus2                      E5          G6
       H    E E    E Q.     Q    Q  Q  Q      Q  Q   Q
    |-----------|--0-----------|----0------|-----0------||
    |-----------|----3---------|-------0---|---------0--||
    |--2------2-|-----------2--|-----------|------------||
    |--0----0---|--------------|-----------|------------||
    |-----------|--------------|-----------|------------||
    |-----------|--------------|-0---------|--3---------||
    |
    |  H    E E    Q    Q   Q    H     E E    Q  Q   Q
    |-------7-9-|-10----9--10--|-7-----7-9-|-10--9------||
    |-10--------|--------------|-----------|--------10--||
    |-----------|--------------|-----------|------------||
    |-----------|--------------|-----------|------------||
    |-----------|--------------|-----------|------------||
    |-----------|--------------|-----------|------------||
    
       1st Verse
        A                            G6
         H    +E  E    E Q.     Q    H    E E    E Q.    Q
    ||--------------|--0-----------|----------|--0---------|
    ||o-------------|----2---------|----------|----3-------|
    ||--------------|-----------2--|----------|----------0-|
    ||------------2-|--------------|----------|------------|
    ||o--0----(0)---|--------------|--------2-|------------|
    ||--------------|--------------|-3----3---|------------|
    |
    |    H     E  E    Q    Q   Q    H    E E    Q    Q  Q
    ||---------7--9-|-10----9------|------7-9-|-10----9--7-|
    ||o-10----------|----------10--|-8--------|------------|
    ||--------------|--------------|----------|------------|
    ||--------------|--------------|----------|------------|
    ||o-------------|--------------|----------|------------|
    ||--------------|--------------|----------|------------|
    
      Dsus2                      E5          G6
       H    E E    E Q.     Q    Q  Q  Q      Q  Q  Q
    |-----------|--0-----------|----0------|-----0------||
    |-----------|----3---------|-------0---|--------0--o||
    |--2------2-|-----------2--|-----------|------------||
    |--0----0---|--------------|-----------|------------||
    |-----------|--------------|-----------|-----------o||
    |-----------|--------------|-0---------|--3---------||
    |
    |  H    E E    Q    Q   Q    H     E E    Q  Q  Q
    |-------7-9-|-10----9--10--|-7-----7-9-|-10--9--7---||
    |-10--------|--------------|-----------|-----------o||
    |-----------|--------------|-----------|------------||
    |-----------|--------------|-----------|------------||
    |-----------|--------------|-----------|-----------o||
    |-----------|--------------|-----------|------------||
    
        A                          G6
         H    E E    E E E E  Q    Q  Q  E E    H     E E
    ||------------|--------------|-------3s5-|--3-------3-|
    ||o-----------|--0h2---------|-------3s5-|--3---------|
    ||----------2-|------2----2--|-----------|--------0---|
    ||--------2---|--------2-----|-----------|------------|
    ||o--0--------|--------------|----2------|------------|
    ||------------|--------------|-3---------|------------|
    |
    |    H    E E    Q   Q    Q    H     E E    Q  Q  Q
    ||--------7-9-|-10---9-------|-------7-9-|-10--9--7---|
    ||o-10--------|----------10--|-8---------|------------|
    ||------------|--------------|-----------|------------|
    ||------------|--------------|-----------|------------|
    ||o-----------|--------------|-----------|------------|
    ||------------|--------------|-----------|------------|
    
      D                         E5           G
       H    E E    E E Q   Q    Q  Q.    E    Q  Q   E E
    |-----------|--3p2--------|----0-----0-|-----3---3-3--||
    |-----------|------3------|----0-----0-|-----3---3-3-o||
    |-----------|----------2--|----1-------|-----0---0-0--||
    |--0----0-0-|-------------|----2-------|-----0--------||
    |-----------|-------------|------------|-------------o||
    |-----------|-------------|-0----------|--3-----------||
    |
    |  H    E E    Q   Q   Q    H      E E    Q  Q   Q
    |-------7-9-|-10---9--10--|-7------7-9-|-10--9--------||
    |-10--------|-------------|------------|--------10---o||
    |-----------|-------------|------------|--------------||
    |-----------|-------------|------------|--------------||
    |-----------|-------------|------------|-------------o||
    |-----------|-------------|------------|--------------||
    
       Chorus
        Am                    Em
        Gtr I
        H.         Q   H      Q   E E Q     Q   E E Q
        |          |   |      |   | | |     |   | | |
        /          /   /      /   / / /     /   / / /
        Gtr III
        H.        +H.         H.           +H.
    ||--0-------|-(0)-------|-0----------|-(0)----------|
    ||o-1-------|-(1)-------|-0----------|-(0)----------|
    ||--2-------|-(2)-------|-0----------|-(0)----------|
    ||--2-------|-(2)-------|-2----------|-(2)----------|
    ||o-0-------|-(0)-------|-2----------|-(2)----------|
    ||----------|-----------|-0----------|-(0)----------|
    
      Am                      Em
      H.         Q   E E Q    Q   E E Q     Q   E E E E
      |          |   | | |    |   | | |     |   | | | |
      /          /   / / /    /   / / /     /   o o o o
      H.        +H.           H.           +H.
    |-0-------|-(0)---------|-0----------|-(0)----------|
    |-1-------|-(1)---------|-0----------|-(0)----------|
    |-2-------|-(2)---------|-0----------|-(0)----------|
    |-2-------|-(2)---------|-2----------|-(2)----------|
    |-0-------|-(0)---------|-2----------|-(2)----------|
    |---------|-------------|-0----------|-(0)----------|
    
          Am                   G
      Q   Q  Q     Q   Q  Q    Q   E E Q     Q   E E Q
      |   |  |     |   |  |    |   | | |     |   | | |
      o   /  /     /   /  /    /   / / /     /   / / /
      H.          +H.          H.           +H.
    |-0---------|-(0)--------|-3----------|-(3)---------|
    |-1---------|-(1)--------|-3----------|-(3)---------|
    |-2---------|-(2)--------|-0----------|-(0)---------|
    |-2---------|-(2)--------|-0----------|-(0)---------|
    |-0---------|-(0)--------|-2----------|-(2)---------|
    |-----------|------------|-3----------|-(3)---------|
    
                                1.
      Cadd9                      B5
      Q   E E Q     Q   E E Q    Q   Q  Q     Q   Q  Q
      |   | | |     |   | | |    |   |  |     |   |  |
      /   / / /     /   / / /    /   /  /     /   /  /
      H.           +H.           H.          +H.
    |-3----------|-(3)---------|-----------|-------------||
    |-3----------|-(3)---------|-----------|------------o||
    |-0----------|-(0)---------|-4---------|-(4)---------||
    |-2----------|-(2)---------|-4---------|-(4)---------||
    |-3----------|-(3)---------|-2---------|-(2)--------o||
    |------------|-------------|-----------|-------------||
    
      2.
      B5
      Gtrs I, III
      Q  Q  Q    Q  Q  Q    Q  Q  Q    Q  E E E E
    |----------|----------|----------|------------|
    |----------|----------|----------|------------|
    |-4--4--4--|-4--4--4--|-4--4--4--|-4----------|
    |-4--4--4--|-4--4--4--|-4--4--4--|-4----------|
    |-2--2--2--|-2--2--2--|-2--2--2--|-2--0-2-3-0-|
    |----------|----------|----------|------------|
    
         B5
      Gtr I
      Q  Q  Q    Q  Q  Q     Q   Q   Q     Q   Q   Q
      |  |  |    |  |  |     |   |   |     |   |   |
      o  /  /    /  /  /     /   /   /     /   /   /
      Gtr III
      Q  Q  Q    Q  Q  Q     Q   Q   Q     Q   Q   Q
    |----------|----------|-------------|-------------||
    |----------|----------|-------------|-------------||
    |-4--4--4S=|=8--8--8S=|=11--11--11--|-12--12--12--||
    |----------|----------|-------------|-------------||
    |-2--2--2S=|=6--6--6S=|==9---9---9--|-10--10--10--||
    |----------|----------|-------------|-------------||
    
       2nd Verse
        A                           G
        Gtr III
         Q  Q  Q      Q   E E  Q    Q  Q  Q      Q  E E Q
         |  |  |      |   | |  |    |  |  |      |  | | |
         /  /  /      /   / /  /    /  /  /      /  / / /
        Gtr I
         H     E E    E E E E  Q    Q  Q  E E    H      E E
    ||-------------|--------------|-------3s5-|--3--------3-|
    ||o------------|--0h2---------|-------3s5-|--3----------|
    ||-----------2-|------2----2--|-----------|---------0---|
    ||---------2---|--------2-----|-----------|-------------|
    ||o--0---------|--------------|----2------|-------------|
    ||-------------|--------------|-3---------|-------------|
    |
    |   Gtr II
    |    H     E E    Q   Q    Q    H     E E    Q  Q   Q
    ||---------7-9-|-10---9-------|-------7-9-|-10--9---7---|
    ||o-10---------|----------10--|-8---------|-------------|
    ||-------------|--------------|-----------|-------------|
    ||-------------|--------------|-----------|-------------|
    ||o------------|--------------|-----------|-------------|
    ||-------------|--------------|-----------|-------------|
    
      D                          E             G
       Q  Q  Q      Q   Q   Q    H.             H.
       |  |  |      |   |   |    |              |
       /  /  /      /   /   /    /              /
       H     E E    E E Q   Q    Q   Q.    E    Q   Q   E E
    |------------|--3p2--------|-----0-----0-|------3---3-3--||
    |------------|------3------|-----0-----0-|------3---3-3-o||
    |------------|----------2--|-----1-------|------0---0-0--||
    |--0-----0-0-|-------------|-----2-------|------0--------||
    |------------|-------------|-------------|--------------o||
    |------------|-------------|-0-----------|--3------------||
    |
    |  H     E E    Q   Q   Q    H       E E    Q   Q   Q
    |--------7-9-|-10---9--10--|-7-------7-9-|-10---9--------||
    |-10---------|-------------|-------------|---------10---o||
    |------------|-------------|-------------|---------------||
    |------------|-------------|-------------|---------------||
    |------------|-------------|-------------|--------------o||
    |------------|-------------|-------------|---------------||
    
       Chorus
                             $
        Am                     Em
        Gtr I
        H.          Q   H      Q  E E Q    Q   E E Q
        |           |   |      |  | | |    |   | | |
        /           /   /      /  / / /    /   / / /
        Gtr III
        Q   Q  Q    H.         Q  Q   Q    H.
    ||------------|-0--------|-----------|-0-----------|
    ||o-----------|-1--------|-----------|-0-----------|
    ||---------2--|----------|--------0--|-------------|
    ||------2-----|----------|----2------|-------------|
    ||o-0---------|----------|-0---------|-------------|
    ||------------|----------|-----------|-------------|
    
      Am                       Em
      H.          Q   E E Q    Q  E E Q    Q  E E E E
      |           |   | | |    |  | | |    |  | | | |
      /           /   / / /    /  / / /    /  o o o o
      Q   Q  Q    H.           Q  Q   Q    Q  E E E E
    |-----------|-0----------|-----------|-0----------|
    |-----------|-1----------|-----------|-0----------|
    |--------2--|------------|-----------|-0----------|
    |-----2-----|------------|--------2--|------------|
    |-0---------|------------|----2------|--------0-3-|
    |-----------|------------|-0---------|----0-3-----|
    
         Am                  G
      Q  Q  Q    Q   Q  Q    Q  E E Q    Q   E E Q
      |  |  |    |   |  |    |  | | |    |   | | |
      o  /  /    /   /  /    /  / / /    /   / / /
      Q  Q  Q    H.          Q  Q   Q    H.
    |----------|-0---------|-----------|-3----------|
    |----------|-1---------|-----------|-3----------|
    |-------2--|-----------|-----------|-0----------|
    |----2-----|-----------|--------0--|------------|
    |-0--------|-----------|----2------|------------|
    |----------|-----------|-3---------|------------|
    
                              1.,D.S.
      Cadd9                    B5
      Q  E E Q    Q   E E Q    Q  Q  Q    Q  Q  Q
      |  | | |    |   | | |    |  |  |    |  |  |
      /  / / /    /   / / /    /  /  /    /  /  /
      Q  Q   Q    H.           Q  Q  Q    Q  Q  Q
    |-----------|-0----------|----------|-----------||
    |-----------|-1----------|----------|----------o||
    |--------0--|------------|-4--4--4--|-4--4--4---||
    |----2------|------------|-4--4--4--|-4--4--4---||
    |-3---------|------------|-2--2--2--|-2--2--2--o||
    |-----------|------------|----------|-----------||
    
      2.
      B5
      Gtrs I, III
      Q  Q  Q    Q  Q  Q    Q  Q  Q    Q  E E E E
    |----------|----------|----------|------------|
    |----------|----------|----------|------------|
    |-4--4--4--|-4--4--4--|-4--4--4--|-4----------|
    |-4--4--4--|-4--4--4--|-4--4--4--|-4----------|
    |-2--2--2--|-2--2--2--|-2--2--2--|-2--0-2-3-0-|
    |----------|----------|----------|------------|
    
         B5
      Gtr I
      Q  Q  Q    Q  Q  Q     Q   Q   Q     Q   Q   Q
      |  |  |    |  |  |     |   |   |     |   |   |
      o  /  /    /  /  /     /   /   /     /   /   /
      Gtr III
      Q  Q  Q    Q  Q  Q     Q   Q   Q     Q   Q   Q
    |----------|----------|-------------|-------------||
    |----------|----------|-------------|-------------||
    |-4--4--4S=|=8--8--8S=|=11--11--11--|-12--12--12--||
    |----------|----------|-------------|-------------||
    |-2--2--2S=|=6--6--6S=|==9---9---9--|-10--10--10--||
    |----------|----------|-------------|-------------||
    
     Interlude
      A                              G
      Gtr I
       H      E E      E E E E  Q    Q   Q      E  E    H      E E
    |-------------|----------------|------------3s=5-|--3--------3-|
    |-------------|----0h2---------|------------3s=5-|--3----------|
    |-----------2-|--------2----2--|-----------------|---------0---|
    |---------2---|----------2-----|-----------------|-------------|
    |--0----------|----------------|-----2-----------|-------------|
    |-------------|----------------|-3---------------|-------------|
    |
    | Gtr II
    |  H      E E      Q   Q    Q    H          E  E    Q   Q  Q
    |---------7-9-|---10---9-------|------------7--9-|-10---9--7---|
    |-10----------|------------10--|-8---------------|-------------|
    |-------------|----------------|-----------------|-------------|
    |-------------|----------------|-----------------|-------------|
    |-------------|----------------|-----------------|-------------|
    |-------------|----------------|-----------------|-------------|
    |
    | Gtr IV
    |  ~~~                                              ~~~
    |  Q.   E E E   a  Q   Q    Q    Q.    +E   E  E    H.
    |-------------|----------------|-----------------|-------------|
    |-------------|----------------|------------8s10s|==8----------|
    |---------6---|-6h=7---6-------|-4-----(4)/-7s=9s|==7----------|
    |-/7----7---7-|--------7----7S=|=5-----(5)/------|-------------|
    |-------------|----------------|-----------------|-------------|
    |-------------|----------------|-----------------|-------------|
    
      D                                 E                    G
        H        E  E    E  E  Q   Q     Q     Q.        E    Q     Q     E  E
    |-----------------|--3p=2---------|--------0---------0-|--------3-----3--3-|
    |-----------------|--------3------|--------0---------0-|--------3-----3--3-|
    |-----------------|------------2--|--------1-----------|--------0-----0--0-|
    |---0--------0--0-|---------------|--------2-----------|--------0----------|
    |-----------------|---------------|--------------------|-------------------|
    |-----------------|---------------|--0-----------------|--3----------------|
    |
    |   H        E  E    Q     Q   Q     H            E  E    Q     Q     Q
    |------------7--9-|-10-----9--10--|--7------------7--9-|-10-----9----------|
    |--10-------------|---------------|--------------------|-------------10----|
    |-----------------|---------------|--------------------|-------------------|
    |-----------------|---------------|--------------------|-------------------|
    |-----------------|---------------|--------------------|-------------------|
    |-----------------|---------------|--------------------|-------------------|
    |
    |   Q.    E  E  E    a  Q  Q   Q     E  E  E   E  E  E    E  E  E  E  E  E
    |-----------------|---------------|--------------------|-------------------|
    |-----------------|---------------|--------------------|-------------------|
    |-----------11----|-11h12-11------|-------13-----14----|-16----14----13h14-|
    |-/12----12----12-|-----------12--|-14-14-----14----14-|----14----14-------|
    |-----------------|---------------|--------------------|-------------------|
    |-----------------|---------------|--------------------|-------------------|
    
      A                                     G
          H          E E      E E E E  Q    Q   Q      E  E    H      E E
    |--------------------|----------------|------------3s=5-|--3--------3-|
    |--------------------|----0h2---------|------------3s=5-|--3----------|
    |------------------2-|--------2----2--|-----------------|---------0---|
    |----------------2---|----------2-----|-----------------|-------------|
    |-----0--------------|----------------|-----2-----------|-------------|
    |--------------------|----------------|-3---------------|-------------|
    |
    |     H          E E      Q   Q    Q    H          E  E    Q   Q  Q
    |----------------7-9-|---10---9-------|------------7--9-|-10---9--7---|
    |----10--------------|------------10--|-8---------------|-------------|
    |--------------------|----------------|-----------------|-------------|
    |--------------------|----------------|-----------------|-------------|
    |--------------------|----------------|-----------------|-------------|
    |--------------------|----------------|-----------------|-------------|
    |
    |                                                          ~~~
    |  a  Q   +E   E E E   a  Q   Q    Q    Q.    +E   E  E    H.
    |--------------------|----------------|-----------------|-------------|
    |--------------------|----------------|------------8s10s|==8----------|
    |-12h14--(14)---6---|-6h=7---6-------|-4-----(4)/-7s=9s|==7----------|
    |----14--(14)-7---7-|--------7----7S=|=5-----(5)/------|-------------|
    |--------------------|----------------|-----------------|-------------|
    |--------------------|----------------|-----------------|-------------|
    
                                                                      To Coda
      D                                 E                    G
    
    Узнай ВСЕ о своем друге в ВК или FB
    H E E E E Q Q Q Q. E Q Q E E |-----------------|--3p=2---------|--------0---------0-|--------3-----3--3-| |-----------------|--------3------|--------0---------0-|--------3-----3--3-| |-----------------|------------2--|--------1-----------|--------0-----0--0-| |---0--------0--0-|---------------|--------2-----------|--------0----------| |-----------------|---------------|--------------------|-------------------| |-----------------|---------------|--0-----------------|--3----------------| | | H E E Q Q Q H E E Q Q Q |------------7--9-|-10-----9--10--|--7------------7--9-|-10-----9----------| |--10-------------|---------------|--------------------|-------------10----| |-----------------|---------------|--------------------|-------------------| |-----------------|---------------|--------------------|-------------------| |-----------------|---------------|--------------------|-------------------| |-----------------|---------------|--------------------|-------------------| | | Q. E E E a Q Q Q E E E E E E E E E E Q |-----------------|---------------|--------------------|-------------------| |-----------------|---------------|--------------------|-------------------| |-----------11----|-11h12-11------|-------13-----14----|-16----14----13---| |-/12----12----12-|-----------12--|-14-14-----14----14-|----14----14-------| |-----------------|---------------|--------------------|-------------------| |-----------------|---------------|--------------------|-------------------| A5 A5 F5 Gtr V q q q q q q q q q q q q | | | | | | | | | | | | / o / / o / / / / / / / Gtr I E E E E +E E E E E E +E E E E E E +E E E E Q E E ||----------------|---------------|---------------|-------------|| ||o-------1-(1)---|-------0-(0)---|---------------|---0--------o|| ||------2-------2-|-----2-------2-|-------2-(2)-0h|=2---2--2-0--|| ||----2-----------|---2-----------|-----3---------|-------------|| ||o-0-------------|-0-------------|---3-----------|------------o|| ||----------------|---------------|-1-------------|-------------|| | | Gtr IV | ~ ~ ~ | Q H Q H H +E E E E H ||----------------|---------------|---------------|-------------|| ||o---------------|---------------|---------------|---0--------o|| ||--2-------------|-2-------------|-------------0h|=2---2-------|| ||--2-------------|-2-------------|-3-------(3)---|-------------|| ||o-0-------------|-0-------------|-3-------(3)---|------------o|| ||------3---------|-----2---------|-1-------(1)---|-------------|| Bridge & A5 A5 F5 Gtr V q q q q q q q q q q q q | | | | | | | | | | | | / o / / o / / / / / / / Gtr I E E E E +E E E E E E +E E E E E E +E E E E Q E E ||----------------|---------------|---------------|--------------|| ||o-------1-(1)---|-------0-(0)---|---------------|---0---------o|| ||------2-------2-|-----2-------2-|-------2-(2)-0h|=2---2--2-0---|| ||----2-----------|---2-----------|-----3---------|--------------|| ||o-0-------------|-0-------------|---3-----------|-------------o|| ||----------------|---------------|-1-------------|--------------|| | | Gtr IV | ~ ~ ~ | Q H Q H H +E E E E H ||----------------|---------------|---------------|--------------|| ||o---------------|---------------|---------------|---0---------o|| ||--2-------------|-2-------------|-------------0h|=2---2--------|| ||--2-------------|-2-------------|-3-------(3)---|--------------|| ||o-0-------------|-0-------------|-3-------(3)---|-------------o|| ||------3---------|-----2---------|-1-------(1)---|--------------|| A5 A5 F5 q q q q q Q q q q q q q | | | | | | | | | | | | / o / / o / / / / / / / E E E E +E E E E E E +E E E E E E +E E E E Q E E ||----------------|--------------------|---------------|-------------|| ||o-------1-(1)---|-----------0--(0)---|---------------|---0--------o|| ||------2-------2-|-----2------------2-|-------2-(2)-0h|=2---2--2-0--|| ||----2-----------|---2----------------|-----3---------|-------------|| ||o-0-------------|-0------------------|---3-----------|------------o|| ||----------------|--------------------|-1-------------|-------------|| | | ~ ~ | Q H Q E +E +Q H +E E E E H ||----------------|--------------------|---------------|-------------|| ||o---------------|--------------------|---------------|---0--------o|| ||--2-------------|-2------------------|-------------0h|=2---2-------|| ||--2-------------|-2------------------|-3-------(3)---|-------------|| ||o-0---3---------|-0---5b6==(5)r(5)---|-3-------(3)---|------------o|| ||----------------|--------------------|-1-------(1)---|-------------|| D.S.S. E5 Gtrs I, V Q Q Q Q Q Q Q Q Q Q Q Q | | | | | | | | | | | | / / / / / / / / / / / / Gtr IV H. +H. +H. +H. |-----------|------------|------------|-------------|| |-----------|------------|------------|-------------|| |-----------|------------|------------|-------------|| |-2---------|-(2)--------|-(2)--------|-(2)---------|| |-2---------|-(2)--------|-(2)--------|-(2)---------|| |-0---------|-(0)--------|-(0)--------|-(0)---------|| 3rd Verse A G Gtr I H E E E E E E Q Q Q E E H E E |-----------|--------------|-------3s5-|--3---------3-| |-----------|--0h2---------|-------3s5-|--3-----------| |---------2-|------2----2--|-----------|----------0---| |-------2---|--------2-----|-----------|--------------| |--0--------|--------------|----2------|--------------| |-----------|--------------|-3---------|--------------| | | Gtr II | H E E Q Q Q H E E Q Q Q |-------7-9-|-10---9-------|-------7-9-|-10---9---7---| |-10--------|----------10--|-8---------|--------------| |-----------|--------------|-----------|--------------| |-----------|--------------|-----------|--------------| |-----------|--------------|-----------|--------------| |-----------|--------------|-----------|--------------| | | Gtr IV | H Q Q Q Q Q Q E E Q Q Q |-----------|--------------|-3--3------|--------------| |--2--------|--------------|-3--3------|-/7--/7-------| |--2----2---|--2---2----2--|-0--0------|-/7--/7--/7---| |--2----2---|--2---2----2--|-0---------|--------------| |--0----0---|--0---0----0--|-2---------|--------------| |-----------|--------------|-3-----3s5-|--------------| D E G H E E E E Q Q E Q. Q E Q. Q |------------|--3p=2----------|---0----0---|----3------3--| |------------|-------3--------|---0----0---|----3------3--| |------------|-----------2----|---1----1---|----0------0--| |--0-----0-0-|----------------|---2----2---|----0------0--| |------------|----------------|---2----2---|----2------2--| |------------|----------------|---0----0---|----3------3--| | | H E E Q Q Q H E E Q Q Q |--------7-9-|-10----9--10----|-7------7-9-|-10----9------| |-10---------|----------------|------------|----------10--| |------------|----------------|------------|--------------| |------------|----------------|------------|--------------| |------------|----------------|------------|--------------| |------------|----------------|------------|--------------| | | ~ | Q H +H +Q E Q. Q E Q. Q |------------|----------------|---0----0---|----3------3--| |------------|----------------|---0----0---|----3------3--| |-/7--7------|-(7)------(7)--|---1----1---|----0------0--| |------------|----------------|---2----2---|----0------0--| |------------|----------------|---2----2---|----2------2--| |------------|----------------|---0----0---|----3------3--| A G H E E E E E E Q Q Q E E H E E |------------|--------------|-------3s5-|--3-------3-| |------------|--0h2---------|-------3s5-|--3---------| |----------2-|------2----2--|-----------|--------0---| |--------2---|--------2-----|-----------|------------| |--0---------|--------------|----2------|------------| |------------|--------------|-3---------|------------| | | H E E Q Q Q H E E Q Q Q |--------7-9-|-10---9-------|-------7-9-|-10--9--7---| |-10---------|----------10--|-8---------|------------| |------------|--------------|-----------|------------| |------------|--------------|-----------|------------| |------------|--------------|-----------|------------| |------------|--------------|-----------|------------| | | H. Q Q Q Q Q E E H Q |------------|--------------|-3--3------|------------| |--2---------|--------------|-3--3--5---|--3---------| |--2---------|--2---2----2--|-0--0--4s5-|--4---------| |--2---------|--2---2----2--|-0---------|------------| |--0---------|--0---0----0--|-2---------|------------| |------------|--------------|-3---------|------------| D E G H E E E E Q Q E Q. Q E Q. Q |------------|--3p=2--------|---0----0---|----3------3--|| |------------|-------3------|---0----0---|----3------3--|| |------------|-----------2--|---1----1---|----0------0--|| |--0-----0-0-|--------------|---2----2---|----0------0--|| |------------|--------------|---2----2---|----2------2--|| |------------|--------------|---0----0---|----3------3--|| | | H E E Q Q Q H E E Q Q Q |--------7-9-|-10----9--10--|-7------7-9-|-10----9------|| |-10---------|--------------|------------|----------10--|| |------------|--------------|------------|--------------|| |------------|--------------|------------|--------------|| |------------|--------------|------------|--------------|| |------------|--------------|------------|--------------|| | | H. +H. E Q. Q E Q. Q |------------|--------------|---0----0---|----3------3--|| |--3---------|-(3)----------|---0----0---|----3------3--|| |--2---------|-(2)----------|---1----1---|----0------0--|| |--0---------|-(0)----------|---2----2---|----0------0--|| |------------|--------------|---2----2---|----2------2--|| |------------|--------------|---0----0---|----3------3--|| Chorus D.S. al Coda Am Gtr I H. Q H | | | / / / Gtr III Q Q Q H. |-----------|--0--------| |-----------|--1--------| |--------2--|-----------| |-----2-----|-----------| |-0---------|-----------| |-----------|-----------| | | Gtr IV | H. +H. |-----------|-----------| |-----------|-----------| |-2---------|-(2)-------| |-2---------|-(2)-------| |-0---------|-(0)-------| |-----------|-----------| Outro $$ A G6 Gtr I H +E E E Q. Q H E E E Q. Q ||--------------|--0-----------|----------|--0---------| ||o-------------|----2---------|----------|----3-------| ||--------------|-----------2--|----------|----------0-| ||------------2-|--------------|----------|------------| ||o--0----(0)---|--------------|--------2-|------------| ||--------------|--------------|-3----3---|------------| | | Gtr II | H E E Q Q Q H E E Q Q Q ||---------7--9-|-10----9------|------7-9-|-10----9--7-| ||o-10----------|----------10--|-8--------|------------| ||--------------|--------------|----------|------------| ||--------------|--------------|----------|------------| ||o-------------|--------------|----------|------------| ||--------------|--------------|----------|------------| Dsus2 E5 G6 H E E E Q. Q Q Q Q Q Q Q |-----------|--0-----------|----0------|-----0------|| |-----------|----3---------|-------0---|--------0--o|| |--2------2-|-----------2--|-----------|------------|| |--0----0---|--------------|-----------|------------|| |-----------|--------------|-----------|-----------o|| |-----------|--------------|-0---------|--3---------|| | | H E E Q Q Q H E E Q Q Q |-------7-9-|-10----9--10--|-7-----7-9-|-10--9--7---|| |-10--------|--------------|-----------|-----------o|| |-----------|--------------|-----------|------------|| |-----------|--------------|-----------|------------|| |-----------|--------------|-----------|-----------o|| |-----------|--------------|-----------|------------|| A G PM----------| PM----| H. Q Q Q Q Q Q Q Q Q |------------||--10--9------|-----------|-10--9--7---| |------------||o--------10--|-8---------|------------| |------------||-------------|-----------|------------| |------------||-------------|-----------|------------| |--0---------||o------------|-----------|------------| |------------||-------------|-----------|------------| | | H E E Q Q Q H E E Q Q Q |--------7-9-||--10--9------|-------7-9-|-10--9--7---| |-10---------||o--------10--|-8---------|------------| |------------||-------------|-----------|------------| |------------||-------------|-----------|------------| |------------||o------------|-----------|------------| |------------||-------------|-----------|------------| 1. D E5 G6 A PM PM----------| PM---------| Q Q Q Q Q Q Q Q Q Q Q Q Q Q Q |-10---------|-10--9--10--|-7---------|-10--9--7--|-10----------|| |------------|------------|-----------|-----------|------------o|| |------------|------------|-----------|-----------|-------------|| |------------|------------|-----------|-----------|-------------|| |------------|------------|-----------|-----------|------------o|| |------------|------------|-----------|-----------|-------------|| | | H E E Q Q Q H E E Q Q Q H E E |--------7-9-|-10--9--10--|-7-----7-9-|-10--9--7--|--------7-9--|| |-10---------|------------|-----------|-----------|-10---------o|| |------------|------------|-----------|-----------|-------------|| |------------|------------|-----------|-----------|-------------|| |------------|------------|-----------|-----------|------------o|| |------------|------------|-----------|-----------|-------------|| 2. A G PM Q Q Q W W W |------------||-------------|----------|-----------| |-10---------||o------------|----------|-----------| |------------||-------------|----------|-----------| |------------||-------------|----------|-----------| |------------||o------------|----------|-----------| |------------||-------------|----------|-----------| | | H E E Q Q Q H E E Q Q Q |--------7-9-||--10--9------|------7-9-|-10--9--7--| |-10---------||o--------10--|-8--------|-----------| |------------||-------------|----------|-----------| |------------||-------------|----------|-----------| |------------||o------------|----------|-----------| |------------||-------------|----------|-----------| 1.,2. D E G A Gtr II H E E Q Q Q H E E Q Q Q H E E 3x |-------7-9-|-10--9--10--|-7----7-9-|-10--9--7--|-------7-9--|| |-10--------|------------|----------|-----------|-10--------o|| |-----------|------------|----------|-----------|------------|| |-----------|------------|----------|-----------|------------|| |-----------|------------|----------|-----------|-----------o|| |-----------|------------|----------|-----------|------------|| 3. E H. +Q Q Q |-7-------|-(7)--------*| |---------|------------*| |---------|------------*| |---------|------------*| |---------|------------*| |---------|------------*| Duration Legend --------------- W - whole; H - half; Q - quarter; E - 8th; S - 16th; T - 32nd; X - 64th; a - acciaccatura + - note tied to previous; . - note dotted; .. - note double dotted Uncapitalized letters represent notes that are staccato (1/2 duration) Irregular groupings are notated above the duration line Duration letters will always appear directly above the note/fret number it represents the duration for. Duration letters with no fret number below them represent rests. Multi- bar rests are notated in the form Wxn, where n is the number of bars to rest for. Low melody durations appear below the staff Tablature Legend ---------------- h - hammer-on p - pull-off b - bend pb - pre-bend r - bend release (if no number after the r, then release immediately) / - slide into or out of (from/to "nowhere") s - legato slide S - shift slide - natural harmonic [n] - artificial harmonic n(n) - tapped harmonic ~ - vibrato tr - trill T - tap TP - trem. picking PM - palm muting n/ - tremolo bar dip; n = amount to dip n - tremolo bar down n/ - tremolo bar up /n - tremolo bar inverted dip = - hold bend; also acts as connecting device for hammers/pulls <> - volume swell (louder/softer) x - on rhythm slash represents muted slash o - on rhythm slash represents single note slash Misc Legend ----------- | - bar || - double bar ||o - repeat start o|| - repeat end *| - double bar (ending) : - bar (freetime) $ - Segno & - Coda Tempo markers - = BPM(8/16=s8/s16), where s8 = swing 8ths, s16 = swing 16ths *************************************************************************************** * Generated using Power Tab Editor by Brad Larsen - http://powertab.guitarnetwork.org * ***************************************************************************************

    http://www.powertabs.net
    искать в аптеке
    список лекарств






    О сайтеАккордыХит-парадПоискУроки ФорумыИщу песню
    ПрограммыСвежачок-сПодпискаСтатьи
    Яндекс.Метрика