Табулатура Metallica | Leper Messiah  (2) гитара табулатуры уроки тексты песен Metallica текст lyrics песня аккорды песни ноты нота электрогитара струна  
   А Б В Г Д Е Ж З И К Л М Н О П Р С Т У Ф Х Ч Ш Ы Э Ю Я       Разные песни
1-9 A B C D E F G H I J K L M N O P Q R S T U V W Y Z      Все исполнители in english

    



группа Metallica, Табулатура песни Leper Messiah (2)

Работа в Европе для граждан РФ, Украины, СНГ

  • минимальная зарплата $500.
  • виза и контракт на полгода, возможно продление
  • проживание оплачивает работодатель
  • нужен только загранпаспорт
  • оформление 190 €
  • данное предложение - отличная возможность эмигрировать в Европу и закрепиться здесь навсегда.

  • Мы свяжемся с Вами по WhatsApp или Viber и ответим на любые вопросы.
    на нашем сайте можно почитать подробнее »

    Группа: Metallica - другие аккорды (225),   о группе (32 статей),   диски (11),   фотографии (49)
    Табулатура песни: Leper Messiah (2)
    Просмотров: 3185
    Прислал: DiaSpar (diaspar@i.com.ua)




        
    #----------------------------------PLEASE NOTE---------------------------------#
    #This file is the author's own work and represents their interpretation of the #
    #song. You may only use this file for private study, scholarship, or research. #
    #------------------------------------------------------------------------------##
                                      LEPER MESSIAH
                                As recorded by Metallica
                         (From the 1986 Album MASTER OF PUPPETS)
    Words and Music by James Hetfield, Lar Ulrich
              E5                   F5                   G5                   A5
          0 2 2 4 x x          1 3 3 x x x          3 5 5 x x x          5 7 7 x x x
              D5                   B5
          x 5 7 7 x x          7 9 9 x x x
    
     Intro
      Medium Rock Q=136
              E5    C5/E5  C5/A             E5    C5/E5  G
     4/4
      Gtrs I, II
              PM|      PM|                  PM|      PM|
      H.      E E   Q  E E Q  Q    +H.      E E   Q  E E H
    |-------------|--------------|--------------|-------------|
    |-------------|--------------|--------------|-------------|
    |-------------|-----------2--|-(2)----------|--------4----|
    |-------------|-5------5--2--|-(2)----------|-5------5----|
    |---------2-2-|-5--2-2-3--0--|-(0)------2-2-|-3--2-2-5----|
    |---------0-0-|-3--0-0-3-----|----------0-0-|-3--0-0-3----|
    
               E5    C5/E5  G5 F             E5
               PM|      PM|                  PM|
      +H.      E E   Q  E E Q  Q    +H.      E E
    |--------------|--------------|--------------|
    |--------------|--------------|--------------|
    |-(4)----------|-----------2--|-(2)----------|
    |-(5)------2-2-|-5--2-2-5--3--|-(3)------2-2-|
    |-(5)------2-2-|-3--2-2-5--3--|-(3)------2-2-|
    |-(3)------0-0-|-3--0-0-3--1--|-(1)------0-0-|
    
      C5/E5  A  E5    N.C.              E5 F#5
                     3/4               4/4
         PM|    PM----------------|            PM|
                              |-3-|
      Q  E E Q  E E   E E E E E E E     Q  e E E E Q
    |---------------|---------------||----------------|
    |---------------|---------------||o---------------|
    |--------2------|---------------||----------------|
    |-5--2-2-2--2-2-|---------------||--2--4---4---4--|
    |-3--2-2-0--2-2-|-----2---------||o-2--4---4-3-4--|
    |-3--0-0----0-0-|-5-3---5-3-2-1-||--0--2---2---2--|
    
                G5F#5  E5     F#5                G5F#5
              PM|         PM--|                    PM|
      e E e E E E Q    Q  E E E E Q    e E e E E E E E
    |----------------|---------------|------------------||
    |----------------|---------------|-----------------o||
    |----------------|---------------|------------------||
    |-----4---4-5-4--|-2----------4--|-----4---4-5-4-4--||
    |-----4---4-5-4--|-2--------3-4--|-----4---4-5-4-4-o||
    |-2---2---2-3-2--|-0--0-0-2---2--|-2---2---2-3-2-2--||
    
      E5
      W          +W           +W           +W
    |----------|------------|------------|--------|
    |----------|------------|------------|--------|
    |----------|------------|------------|--------|
    |-2--------|-(2)--------|-(2)--------|-(2)----|
    |-2--------|-(2)--------|-(2)--------|-(2)----|
    |-0--------|-(0)--------|-(0)--------|-(0)----|
    
           PM|    PM|      PM|             PM|    PM|      PM|
      +Q   E E Q  E E   Q  E E H        Q  E E Q  E E   Q  E E H
    |-----------------|-------------||----------------|--------------||
    |-----------------|-------------||o---------------|-------------o||
    |-----------------|-------------||----------------|--------------||
    |-(2)--2-2----2-2-|----2-2------||-----2-2----2-2-|----2-2-------||
    |-(2)--2-2----2-2-|----2-2------||o----2-2----2-2-|----2-2------o||
    |-(0)--0-0----0-0-|----0-0------||-----0-0----0-0-|----0-0-------||
    
                      F5E5C5/G   A  C5    E5
                     5/4                 4/4
         PM|    PM------|    PM|               PMPM     PMPM
      Q  E E Q  E E   E E Q  E E Q  E E   Q    E E Q    E E
    |---------------|-------------------|-------------------|
    |---------------|-------------------|-------------------|
    |---------------|------------2--5---|-------------------|
    |----2-2----2-2-|-3-2-5------2--5---|-2--------2--------|
    |----2-2----2-2-|-3-2-5--3-2-0--3---|-3p2------3p2------|
    |----0-0----0-0-|-1-0-3-------------|------0-0------0-0-|
                                          S E. Q   S E. Q
    
                      F5G5   E5                      C5/G   A
           PMPM|                  PMPM     PMPM----|    PM|
      Q    E S S Q    S E.   Q    E E Q    E E   E E Q  E E Q
    |----------------------|-------------------|---------------||
    |----------------------|-------------------|------------2--||
    |----------------------|-------------------|------------2--||
    |-2----------2----3-5--|-2--------2--------|-----5------2--||
    |-3p2--------3p2--3-5--|-3p2------3p2------|-----3------0--||
    |------0-0-0------1-3--|------0-0------0-0-|-0-0-3--0-0----||
      S E. Q     S E. Q      S E. Q   S E. Q
    
       Verse
             PMPM     PMPM       PMPM|                 PM|      PM|
        Q    E E Q    E E   Q    E S S Q    S E.   E E E E S E. E E
    ||--------------------|----------------------|-------------------|
    ||o-------------------|----------------------|-------------------|
    ||--------------------|----------------------|-------------------|
    ||--2--------2--------|-2----------2----3-5--|-------------------|
    ||o-3p2------3-2------|-3p2--------3p2--3-5--|-5s4-----5s4-------|
    ||-------0-0------0-0-|------0-0-0------1-3--|-3s2-2-2-3s2--2-2--|
        S E. Q   S E. Q     S E. Q     S E. Q
    
           PM|                  PMPM     PMPM
      S E. E E S E. S E.   Q    E E Q    E E
    |--------------------|-------------------|
    |--------------------|-------------------|
    |--------------------|-------------------|
    |--------------------|-2--------2--------|
    |-5s4------5s4--4s5--|-3p2------3p2------|
    |-3s2--2-2-3s2--2s3--|------0-0------0-0-|
                           S E. Q   S E. Q
    
           PMPM|                PM|      PM|
      Q    E S S Q    E E   E E E E S E. E E
    |---------------------|------------------|
    |---------------------|------------------|
    |---------------------|------------------|
    |-2----------2----3-5-|------------------|
    |-3p2--------3p2--3-5-|-5s4-----5s4------|
    |------0-0-0------1-3-|-3s2-2-2-3s2--2-2-|
      S E. Q     S E. Q
    
           PM|                  PMPM-----PM|        PMPM|
      S E. E E S E. S E.   Q    E E Q    E E   Q    E S S Q    S E.
    |--------------------|-------------------|----------------------|
    |--------------------|-------------------|----------------------|
    |--------------------|-------------------|----------------------|
    |--------------------|-2--------2--------|-2----------2----3-5--|
    |-5s4------5s4--4s5--|-3p2------3p2------|-3p2--------3p2--3-5--|
    |-3s2--2-2-3s2--2s3--|------0-0------0-0-|------0-0-0------1-3--|
                           S E. Q   S E. Q     S E. Q     S E. Q
    
          PM|      PM|        PM|                  PMPM     PMPM
      E E E E S E. E E   S E. E E S E. S E.   Q    E E Q    E E
    |------------------|--------------------|-------------------|
    |------------------|--------------------|-------------------|
    |------------------|--------------------|-------------------|
    |------------------|--------------------|-2--------2--------|
    |-5s4-----5s4------|-5s4------5s4--4s5--|-3p2------3p2------|
    |-3s2-2-2-3s2--2-2-|-3s2--2-2-3s2--2s3--|------0-0------0-0-|
                                              S E. Q   S E. Q
    
           PMPM|                 PM|      PM|        PM|
      Q    E S S Q    S E.   E E E E S E. E E   S E. E E S E. S E.
    |----------------------|------------------|--------------------|
    |----------------------|------------------|--------------------|
    |----------------------|------------------|--------------------|
    |-2----------2----3-5--|------------------|--------------------|
    |-3p2--------3p2--3-5--|-5s4-----5s4------|-5s4------5s4--4s5--|
    |------0-0-0------1-3--|-3s2-2-2-3s2--2-2-|-3s2--2-2-3s2--2s3--|
      S E. Q     S E. Q
    
      E5   Eb5    D5   C#5    E5   Eb5    D5   C#5
      H    H      H    H      H    H      H    H
    |-----------|-----------|-----------|-----------||
    |-----------|-----------|-----------|-----------||
    |-9----8----|-7----6----|-9----8----|-7----6----||
    |-9----8----|-7----6----|-9----8----|-7----6----||
    |-7----6----|-5----4----|-7----6----|-5----4----||
    |-0---------|-----------|-0---------|-----------||
    
     Chorus
      E5/B     Eb5/Bb     D5/A     C#5/G#   E5/B     Eb5/Bb
         PM|      PM|        PM|      PM|      PM|      PM|
      Q  E E S E. E E   S E. E E S E. E E   Q  E E S E. E E
    |-----------------|-------------------|-----------------|
    |-----------------|-------------------|-----------------|
    |-9------9s8------|-8s7------7s6------|-9------9s8------|
    |-9------9s8------|-8s7------7s6------|-9------9s8------|
    |-7------7s6------|-6s5------5s4------|-7------7s6------|
    |-7--0-0-7s6--0-0-|-6s5--0-0-5s4--0-0-|-7--0-0-7s6--0-0-|
    
        D5/A     C#5/G#   E5/B       Eb5/Bb       D5/A       C#5/G#
           PM|      PM|      PM--|      PM--|        PM--|      PM--|
      S E. E E S E. E E   Q  E S S S E. E S S   S E. E S S S E. E S S
    |-------------------|---------------------|-----------------------|
    |-------------------|---------------------|-----------------------|
    |-8s7------7s6------|-9--------9s8--------|-8s7--------7s6--------|
    |-8s7------7s6------|-9--------9s8--------|-8s7--------7s6--------|
    |-6s5------5s4------|-7--------7s6--------|-6s5--------5s4--------|
    |-6s5--0-0-5s4--0-0-|-7--0-0-0-7s6--0-0-0-|-6s5--0-0-0-5s4--0-0-0-|
    
      E5/B         Eb5/Bb         D5/A         C#5/G#
         PM----|      PM----|        PM----|      PM----|
      Q  S S S S S E. S S S S   S E. S S S S S E. S S S S
    |-------------------------|---------------------------|
    |-------------------------|---------------------------|
    |-9----------9s8----------|-8s7----------7s6----------|
    |-9----------9s8----------|-8s7----------7s6----------|
    |-7----------7s6----------|-6s5----------5s4----------|
    |-7--0-0-0-0-7s6--0-0-0-0-|-6s5--0-0-0-0-5s4--0-0-0-0-|
    
      AbG5         AbG5           AbG5         AbG5           E5 F#5
           PM----|      PM----|        PM----|      PM----|          PM|
      S E. S S S S S E. S S S S   S E. S S S S S E. S S S S   Q  e E E E Q
    |---------------------------|---------------------------|----------------|
    |---------------------------|---------------------------|----------------|
    |---------------------------|---------------------------|----------------|
    |---------------------------|---------------------------|-2--4---4---4---|
    |-6s5----------6s5----------|-6s5----------6s5----------|-2--4---4-3-4---|
    |-4s3--3-3-3-3-4s3--3-3-3-3-|-4s3--3-3-3-3-4s3--3-3-3-3-|-0--2---2---2---|
    
                G5F#5  E5     F#5                G5F#5
              PM|                                  PM|
      e E e E E E Q    Q  E E E E Q    e E e E E E E E
    |----------------|---------------|-----------------|
    |----------------|---------------|-----------------|
    |----------------|---------------|-----------------|
    |-----4---4-5-4--|-2----------4--|-----4---4-5-4-4-|
    |-----4---4-5-4--|-2--------3-4--|-----4---4-5-4-4-|
    |-2---2---2-3-2--|-0--0-0-2---2--|-2---2---2-3-2-2-|
    
      E5 F#5                    G5F#5E5    C5/E5  A  E5
                     5/4                  4/4
             PM|                     PM|
      Q  E E E E Q    e E e E E E Q  E E   Q  E E Q  E E
    |---------------|--------------------|---------------|
    |---------------|--------------------|--------2------|
    |---------------|--------------------|--------2------|
    |-2--4---4---4--|-----4---4-5-4--2-2-|-5--2-2-2--2-2-|
    |-2--4---4-3-4--|-----4---4-5-4--2-2-|-5--2-2-0--2-2-|
    |-0--2---2---2--|-2---2---2-3-2--0-0-|-3--0-0----0-0-|
    
                        E5
     3/4               4/4
      PM----------|             PM--|      PM--|    PM--|
              |-3-|             |-3-|      |-3-|    |-3-|
      E E E E E E E     H.      E E E   Q  E E E Q  E E E
    |----------------||---------------|-------------------||
    |---------------o||---------------|-------------------||
    |----------------||-4-------------|-4--------4--------||
    |----------------||-2-------------|-2--------2--------||
    |-----2---------o||-2-------------|-2--------2--------||
    |-5-3---5-3-2-1--||-0-------3-2-1-|-0--3-2-1-0--3-2-1-||
    
     Interlude
      Faster Q=184
      E5                             F5
      Gtr I
      W              +W              W
      |               |              |
      /               /              /
      Gtr II
      PM----| ~       PM----| ~              ~
      E E E E H       E E E E H      E E E E H
    |--------------|---------------|--------------|
    |--------------|---------------|--------------|
    |---4----------|----4----------|---4----------|
    |-2---5-4-2----|--2---5-4-2----|-2---5-4-3----|
    |--------------|---------------|--------------|
    |--------------|---------------|--------------|
    
      G5      A5        E5
      H       H         W              +W
      |       |         |               |
      /       /         /               /
      PM----------------------| ~       PM----| ~
      E E E E E E E E   E E E E H       E E E E H
    |-----------------|--------------|---------------|
    |-----------------|--------------|---------------|
    |-----4---5---4-5-|---4----------|----4----------|
    |-7-5---7---7-----|-2---5-4-2----|--2---5-4-2----|
    |-----------------|--------------|---------------|
    |-----------------|--------------|---------------|
    
      D5             A5      B5        E5
      W              H       H         W
      |              |       |         |
      /              /       /         /
      PM----| ~      PM----------------------| ~
      E E E E H      E E E E E E E E   E E E E H
    |--------------|-----------------|--------------|
    |--------------|-----------------|--------------|
    |---4-4-3-2----|-----4---5---4-5-|---4----------|
    |-2------------|-7-5---7---7-----|-2---5-4-2----|
    |--------------|-----------------|--------------|
    |--------------|-----------------|--------------|
    
                     F5             G5      A5
      E E Q   H      W              H       H
      | |            |              |       |
      / /            /              /       /
      PM|     ~      PM----| ~      PM------------|
      E E E E H      E E E E H      E E E E E E E E
    |--------------|--------------|-----------------|
    |--------------|--------------|-----------------|
    |---4----------|---4----------|-----4---5---4-5-|
    |-2---5-4-2----|-2---5-4-3----|-7-5---7---7-----|
    |--------------|--------------|-----------------|
    |--------------|--------------|-----------------|
    
      E5                            D5
      W              E E Q   H      W
      |              | |            |
      /              / /            /
      PM----| ~      PM----| ~      PM----| ~
      E E E E H      E E E E H      E E E E H
    |--------------|--------------|--------------|
    |--------------|--------------|--------------|
    |---4----------|---4----------|---4-4-3-2----|
    |-2---5-4-2----|-2---5-4-2----|-2------------|
    |--------------|--------------|--------------|
    |--------------|--------------|--------------|
    
      A5           B5      E5
      Gtr II
                           PM----|    PM----|      PM----|    PM----|
      W                    S S S S Q  S S S S Q    S S S S Q  S S S S Q
    |--------------------|-----------------------|-----------------------|
    |--------------------|-----------------------|-----------------------|
    |--------------------|---------4----------4--|---------4----------4--|
    |--------------------|---------2----------2--|---------2----------2--|
    |--------------------|---------2----------2--|---------2----------2--|
    |--------------------|-0-0-0-0-0--0-0-0-0-0--|-0-0-0-0-0--0-0-0-0-0--|
    |
    | Gtr I
    |                      PM----|    PM----|      PM----|    PM----|
    | S E. E S T T Q  Q    S S S S Q  S S S S Q    S S S S Q  S S S S Q
    |--------------------|-----------------------|-----------------------|
    |--------------------|-----------------------|-----------------------|
    |--------------------|---------4----------4--|---------4----------4--|
    |-7-7--7---7-7-9--9--|---------2----------2--|---------2----------2--|
    |-7-7--7---7-7-9--9--|---------2----------2--|---------2----------2--|
    |-5-5--5---5-5-7--7--|-0-0-0-0-0--0-0-0-0-0--|-0-0-0-0-0--0-0-0-0-0--|
    
      F                       G5         A5           E5
      Gtrs I, II
      PM----|    PM----|      PM----|    PM----|      PM----|    PM----|
      S S S S Q  S S S S Q    S S S S Q  S S S S Q    S S S S Q  S S S S Q
    |-----------------------|-----------------------|------------------------|
    |-----------------------|-----------------------|------------------------|
    |---------2----------2--|-----------------------|---------4----------4---|
    |---------3----------3--|---------5----------7--|---------2----------2---|
    |---------3----------3--|---------5----------7--|---------2----------2---|
    |-1-1-1-1-1--1-1-1-1-1--|-3-3-3-3-3--5-5-5-5-5--|-0-0-0-0-0--0-0-0-0-0---|
    
                              D                       A5           B5
      PM----|    PM----|      PM----|    PM----|
      S S S S Q  S S S S Q    S S S S Q  S S S S Q    S E. e S T T Q  Q
    |-----------------------|-----------------------|--------------------||
    |-----------------------|---------7----------7--|--------------------||
    |---------4----------4--|---------7----------7--|--------------------||
    |---------2----------2--|---------7----------7--|-7-7--7---7-7-9--9--||
    |---------2----------2--|-5-5-5-5-5--5-5-5-5-5--|-7-7--7---7-7-9--9--||
    |-0-0-0-0-0--0-0-0-0-0--|-----------------------|-5-5--5---5-5-7--7--||
    
     Bridge
      E5
      PM----|    PM----|      PM----|    PM----|
      S S S S Q  S S S S Q    S S S S Q  S S S S Q
    |-----------------------|-----------------------|
    |-----------------------|-----------------------|
    |---------4----------4--|---------4----------4--|
    |---------2----------2--|---------2----------2--|
    |---------2----------2--|---------2----------2--|
    |-0-0-0-0-0--0-0-0-0-0--|-0-0-0-0-0--0-0-0-0-0--|
    
      F                       G5         A5
      PM----|    PM----|      PM----|    PM----|
      S S S S Q  S S S S Q    S S S S Q  S S S S Q
    |-----------------------|-------------------------|
    |-----------------------|-------------------------|
    |---------2----------2--|-------------------------|
    |---------3----------3--|---------5----------7----|
    |---------3----------3--|---------5----------7----|
    |-1-1-1-1-1--1-1-1-1-1--|-3-3-3-3-3--5-5-5-5-5----|
    
      E5
      PM----|    PM----|      PM----|    PM----|
      S S S S Q  S S S S Q    S S S S Q  S S S S Q
    |-----------------------|-----------------------|
    |-----------------------|-----------------------|
    |---------4----------4--|---------4----------4--|
    |---------2----------2--|---------2----------2--|
    |---------2----------2--|---------2----------2--|
    |-0-0-0-0-0--0-0-0-0-0--|-0-0-0-0-0--0-0-0-0-0--|
    
      D                       A5           B5
      PM----|    PM----|
      S S S S Q  S S S S Q    S E. e S T T Q  Q
    |-----------------------|---------------------|
    |---------7----------7--|---------------------|
    |---------7----------7--|---------------------|
    |---------7----------7--|-7-7--7---7-7-9--9---|
    |-5-5-5-5-5--5-5-5-5-5--|-7-7--7---7-7-9--9---|
    |-----------------------|-5-5--5---5-5-7--7---|
    
     Guitar Solo
      E5
      Gtr I
       |--3--|  |--3--|  |--3--|  |--3--|    |--3--|  |--3--|  |--3--|  |--3--|
       Q     E  Q     E  Q     E  Q     E    Q     E  Q     E  Q     E  Q     E
       |     |  |     |  |     |  |     |    |     |  |     |  |     |  |     |
       o     /  /     /  /     /  /     /    /     /  /     /  /     /  /     /
      Gtr II
       |--3--|  |--3--|  |--3--|  |--3--|    |--3--|  |--3--|  |--3--|  |--3--|
       E  E  E  E  E  E  E  E  E  E  E  E    E  E  E  E  E  E  E  E  E  E  E  E
    |-19p15----------15-19p15----------15-|-19p15----------15-19p15----------15-|
    |-------17----17----------17----17----|-------17----17----------17----17----|
    |----------16----------------16-------|----------16----------------16-------|
    |-------------------------------------|-------------------------------------|
    |-------------------------------------|-------------------------------------|
    
    Узнай ВСЕ о своем друге в ВК или FB
    |-------------------------------------|-------------------------------------| F5 |--3--| |--3--| |--3--| |--3--| Q E Q E Q E Q E | | | | | | | | o / / / / / / / |--3--| |--3--| |--3--| |--3--| E E E E E E E E E E E E |-20p17----------17-20p17----------17--| |-------18----18----------18----18-----| |----------17----------------17--------| |--------------------------------------| |--------------------------------------| |--------------------------------------| G5 A5 E5 |--3--| |--3--| |--3--| |--3--| |--3--| |--3--| |--3--| |--3--| Q E Q E Q E Q E Q E Q E Q E Q E | | | | | | | | | | | | | | | | o / / / o / / / o / / / / / / / |--3--| |--3--| |--3--| |--3--| |--3--| |--3--| |--3--| |--3--| E E E E E E E E E E E E E E E E E E E E E E E E |-22p19----------19-22p19----------19-|-19p15----------15-19p15----------15-| |-------20----20----------20----20----|-------17----17----------17----17----| |----------19----------------19-------|----------16----------------16-------| |-------------------------------------|-------------------------------------| |-------------------------------------|-------------------------------------| |-------------------------------------|-------------------------------------| |--3--| |--3--| |--3--| |--3--| Q E Q E Q E Q E | | | | | | | | / / / / / / / / |--3--| |--3--| |--3--| |--3--| E E E E E E E E E E E E |-19p15----------15-19p15----------15--| |-------17----17----------17----17-----| |----------16----------------16--------| |--------------------------------------| |--------------------------------------| |--------------------------------------| D5 S S S S S S S S S S S S S S S S |-22-20-19---17-21-19-17------19-16---------17------------| |--------------------------20-------20---19----20-19---17-| |---------------------------------------------------------| |---------------------------------------------------------| |---------------------------------------------------------| |---------------------------------------------------------| | | Gtr I | |---3---| |---3---| |---3---| |---3---| | Q E Q E Q E Q E |---------------------------------------------------------| |---------------------------------------------------------| |---------------------------------------------------------| |----------7-----7-------7-----7-------7-----7-------7----| |--5-------5-----5-------5-----5-------5-----5-------5----| |---------------------------------------------------------| A5 B5 S S S S S S S S S E. +S S S S |-------------------------------------------------| |-20-19--17----19-17-15-14---17p15--(15)-13-12-15-| |-----------19------------------------------------| |-------------------------------------------------| |-------------------------------------------------| |-------------------------------------------------| | | S E. E S T T Q Q |-------------------------------------------------| |-------------------------------------------------| |-------------------------------------------------| |--7--7---------7--------7-7--9-------9-----------| |--7--7---------7--------7-7--9-------9-----------| |--5--5---------5--------5-5--7-------7-----------| E5 Gtr I |-3--| |-3--| |--3--| |-3--| |---3---| |3| |-3--| |---3---| Q E Q E Q E Q E Q E Q E Q E Q E | | | | | | | | | | | | | | | | o / / / / / / / / / / / / / / / ~~~~~ |--3--| Q Q E E E E E E Q. Q S S S S |----------------------------------|--------------------------------------| |-15b17---15b17---15-12----12-15---|-12-15b17-------15b17---15p12------12-| |-----------------------14---------|------------------------------13------| |----------------------------------|--------------------------------------| |----------------------------------|--------------------------------------| |----------------------------------|--------------------------------------| F5 |-3--| |---3---| |---3---| |-3--| Q E Q E Q E Q E | | | | | | | | o / / / / / / / E S S S S S S S S E E E |-x-15p==12-----------------------------------| |-----------15p12------12-15p12---------------| |-----------------14------------14---12-------| |---------------------------------------14----| |---------------------------------------------| |---------------------------------------------| G5 A5 |---3---| |3| |-3-| |-3-| Q E Q E Q E Q E | | | | | | | | o / / / o / / / E Q. +Q Q |------------------------(7)/---| |----15----------(15)----------| |-12-14b16-------(14)----------| |-------------------------------| |-------------------------------| |-------------------------------| E5 |---3---| |---3---| |---3---| |---3---| Q E Q E Q E Q E | | | | | | | | o / / / / / / / S S S S S S S S S S S S S S S S |-19p15------15-19p15-17p==15----15-19p==15-17p15------15-| |-------17--------------------17------------------17------| |---------------------------------------------------------| |---------------------------------------------------------| |---------------------------------------------------------| |---------------------------------------------------------| S S E S S S S E S S S E. |-19p15------19p15-17p==15----19p==15-17p15----| |-------17-----------------15------------------| |----------------------------------------------| |----------------------------------------------| |----------------------------------------------| |----------------------------------------------| | | Gtr I | |---3---| |---3---| |-3--| |--3--| | Q E Q E Q E Q E |----------------------------------------------| |----------------------------------------------| |----------------------------------------------| |----------------------------------------------| |----------2--2-------2-----2----2-----2-----2-| |--0-------0--0-------0-----0----0-----0-----0-| ~~~~~ ~~~~~ |--3--| H Q E E E E Q. H |-20b22-------20b22---19-17----|-17----22b24---------22b24------|| |-20b22---------------------19-|--------------------------------|| |------------------------------|--------------------------------|| |------------------------------|--------------------------------|| |------------------------------|--------------------------------|| |------------------------------|--------------------------------|| | | |-3--| |3| |-3--| |--3--| | Q E Q E Q E Q E S E. E S T T Q Q |------------------------------|--------------------------------|| |------------------------------|--------------------------------|| |------------------------------|--------------------------------|| |-------7-7-7--7----7--7-----7-|--7-7--------7---7-7--9-----9---|| |--5----5-5-5--5----5--5-----5-|--7-7--------7---7-7--9-----9---|| |------------------------------|--5-5--------5---5-5--7-----7---|| Interlude E5 F5 Gtr I W +W W | | | / / / PM-------------------------------------------------| E E E E E E E E E E E E E E E E E E E E E E E E ||------------------|------------------|-----------------| ||o-----------------|------------------|-----------------| ||----4-------------|----4-------------|---4-------------| ||------5-4---5-4---|------5-4---5-4---|-2---5-4-3-5-4-3-| ||o-7-------7-----7-|--7-------7-----7-|-----------------| ||------------------|------------------|-----------------| G5 A5 E5 H H W +W | | | | / / / / PM-------------------------------------------------| E E E E E E E E E E E E E E E E E E E E E E E E |-----------------|-----------------|------------------| |-----------------|-----------------|------------------| |-----4---5---4-5-|---4-------------|----4-------------| |-7-5---7---7-----|-----5-4---5-4---|------5-4---5-4---| |-----------------|-7-------7-----7-|--7-------7-----7-| |-----------------|-----------------|------------------| D5 A5 B5 N.C. PM------------| PM--------------------| E E E E E E E E W E S S E S S E S S E S S |-----------------|---------------------||--------------------------| |-----------------|--------------------o||--------------------------| |---4-4-3-2-4-3-2-|---------------------||--------------------------| |-----------------|---------------------||--------------------------| |-7---------------|--------------------o||--------------------------| |-----------------|---------------------||-5-5-5-5-5-5-5-5-5-5-5-5--| | | Gtr I | PM--------------------| | W S E. e S T T Q Q E S S E S S E S S E S S |-----------------|---------------------||--------------------------| |-----------------|--------------------o||--------------------------| |-7---------------|---------------------||--------------------------| |-7---------------|-7-7--7---7-7-9--9---||--------------------------| |-5---------------|-7-7--7---7-7-9--9--o||--------------------------| |-----------------|-5-5--5---5-5-7--7---||-5-5-5-5-5-5-5-5-5-5-5-5--| Gtrs I, II PM------------------------------------------------- E S S E S S E S S E S S E S S E S S E S S E S S |-------------------------|-------------------------| |-------------------------|-------------------------| |-------------------------|-------------------------| |-------------------------|-------------------------| |-------------------------|-------------------------| |-5-5-5-5-5-5-5-5-5-5-5-5-|-3-3-3-3-3-3-3-3-3-3-3-3-| -----------------------| E S S E S S E S S E S S |--------------------------|| |--------------------------|| |--------------------------|| |--------------------------|| |--------------------------|| |-2-2-2-2-2-2-2-2-2-2-2-2--|| Chorus E5 Eb5 D5 C#5 E5 Eb5 D5 C#5 H H H H H H H H |-----------|-----------|-----------|-----------| |-----------|-----------|-----------|-----------| |-9----8----|-7----6----|-9----8----|-7----6----| |-9----8----|-7----6----|-9----8----|-7----6----| |-7----6----|-5----4----|-7----6----|-5----4----| |-0---------|-----------|-0---------|-----------| E5 PM----| PM----| PM----| PM----| S S S S Q S S S S Q S S S S Q S S S S Q |-----------------------|-----------------------| |-----------------------|-----------------------| |---------4----------4--|---------4----------4--| |---------2----------2--|---------2----------2--| |---------2----------2--|---------2----------2--| |-0-0-0-0-0--0-0-0-0-0--|-0-0-0-0-0--0-0-0-0-0--| Eb5 D5 C#5 E5 Eb5 H H H H H H |-----------|-----------|-----------| |-----------|-----------|-----------| |-9----8----|-7----6----|-9----8----| |-9----8----|-7----6----|-9----8----| |-7----6----|-5----4----|-7----6----| |-0---------|-----------|-0---------| D5 C#5 G PM----| PM----| PM----| PM----| H H S S S S Q S S S S Q S S S S Q S S S S Q |-----------|-----------------------|------------------------|| |-----------|-----------------------|------------------------|| |-7----6----|---------4----------4--|---------4----------4---|| |-7----6----|---------5----------5--|---------5----------5---|| |-5----4----|---------5----------5--|---------5----------5---|| |-----------|-3-3-3-3-3--3-3-3-3-3--|-3-3-3-3-3--3-3-3-3-3---|| N.C. PM------| PM------| PM------| PM------| e S S E S S e S S E S S e S S E S S e S S E S S ||--------------------------|--------------------------|| ||o-------------------------|-------------------------o|| ||--------------------------|--------------------------|| ||--------------------------|--------------------------|| ||o-7-----------6-----------|-5-----------4-----------o|| ||----0-0-0-0-0---0-0-0-0-0-|---0-0-0-0-0---0-0-0-0-0--|| G5 PM------| PM------| PM------| PM------| E S S E S S E S S E S S E S S E S S E S S E S S H H |-------------------------|-------------------------|-----------| |-------------------------|-------------------------|-----------| |-4-----------4-----------|-4-----------4-----------|-4----4----| |-5-----------5-----------|-5-----------5-----------|-5----5----| |-5-----------5-----------|-5-----------5-----------|-5----5----| |-3-3-3-3-3-3-3-3-3-3-3-3-|-3-3-3-3-3-3-3-3-3-3-3-3-|-3----3----| 1 H H W +W +W |-----------|----------|------------|--------| |-----------|----------|------------|--------| |-4----4----|-4--------|-(4)--------|-(4)----| |-5----5----|-5--------|-(5)--------|-(5)----| |-5----5----|-5--------|-(5)--------|-(5)----| |-3----3----|-3--------|-(3)--------|-(3)----| Outro Q=136 N.C. E5 F#5 PM--------------| |-3-| +W E E E E E E E E E Q e E E E Q |------------||-------------------|---------------| |------------||-------------------|---------------| |-(4)--------||-------------------|---------------| |-(5)--------||-------------------|-2--4---4---4--| |-(5)--------||---------2---------|-2--4---4-3-4--| |-(3)--------||-3-2-5-3---5-3-2-1-|-0--2---2---2--| G5F#5 E5 F#5 G5F#5 PM| PM| e E e E E E Q Q E E E E Q e E e E E E E E |----------------|---------------|-----------------| |----------------|---------------|-----------------| |----------------|---------------|-----------------| |-----4---4-5-4--|-2----------4--|-----4---4-5-4-4-| |-----4---4-5-4--|-2--------3-4--|-----4---4-5-4-4-| |-2---2---2-3-2--|-0--0-0-2---2--|-2---2---2-3-2-2-| E5 F#5 G5F#5E5 C5/E5 A E5 5/4 4/4 PM| PM| PM| PM| Q e E E E Q e E e E E E Q E E Q E E Q E E |---------------|--------------------|---------------| |---------------|--------------------|--------2------| |---------------|--------------------|--------2------| |-2--4---4---4--|-----4---4-5-4--2-2-|-5--2-2-2--2-2-| |-2--4---4-3-4--|-----4---4-5-4--2-2-|-5--2-2-0--2-2-| |-0--2---2---2--|-2---2---2-3-2--0-0-|-3--0-0----0-0-| N.C. E5 F5 E5 3/4 4/4 PM----------| PM--| |-3-| |-3-| E E E E E E E Q Q H Q E E E q Q |---------------|------------|----------------*| |---------------|------------|----------------*| |---------------|------------|----4-4-4-4-----*| |---------------|-2----------|-3--2-2-2-2-----*| |-----2---------|-2----------|-3--2-2-2-2-----*| |-5-3---5-3-2-1-|-0----------|-1--0-0-0-0-----*| Duration Legend --------------- W - whole; H - half; Q - quarter; E - 8th; S - 16th; T - 32nd; X - 64th; a - acciaccatura + - note tied to previous; . - note dotted; .. - note double dotted Uncapitalized letters represent notes that are staccato (1/2 duration) Irregular groupings are notated above the duration line Duration letters will always appear directly above the note/fret number it represents the duration for. Duration letters with no fret number below them represent rests. Multi- bar rests are notated in the form Wxn, where n is the number of bars to rest for. Low melody durations appear below the staff Tablature Legend ---------------- h - hammer-on p - pull-off b - bend pb - pre-bend r - bend release (if no number after the r, then release immediately) / - slide into or out of (from/to "nowhere") s - legato slide S - shift slide - natural harmonic [n] - artificial harmonic n(n) - tapped harmonic ~ - vibrato tr - trill T - tap TP - trem. picking PM - palm muting n/ - tremolo bar dip; n = amount to dip n - tremolo bar down n/ - tremolo bar up /n - tremolo bar inverted dip = - hold bend; also acts as connecting device for hammers/pulls <> - volume swell (louder/softer) x - on rhythm slash represents muted slash o - on rhythm slash represents single note slash Misc Legend ----------- | - bar || - double bar ||o - repeat start o|| - repeat end *| - double bar (ending) : - bar (freetime) $ - Segno & - Coda Tempo markers - = BPM(8/16=s8/s16), where s8 = swing 8ths, s16 = swing 16ths *************************************************************************************** * Generated using Power Tab Editor by Brad Larsen - http://powertab.guitarnetwork.org * ***************************************************************************************

    http://www.powertabs.net
    искать в аптеке
    список лекарств






    О сайтеАккордыХит-парадПоискУроки ФорумыИщу песню
    ПрограммыСвежачок-сПодпискаСтатьи
    Яндекс.Метрика