Табулатура Metallica | Jump In The Fire  (2) гитара табулатуры уроки тексты песен Metallica текст lyrics песня аккорды песни ноты нота электрогитара струна  
   А Б В Г Д Е Ж З И К Л М Н О П Р С Т У Ф Х Ч Ш Ы Э Ю Я       Разные песни
1-9 A B C D E F G H I J K L M N O P Q R S T U V W Y Z      Все исполнители in english

    



группа Metallica, Табулатура песни Jump In The Fire (2)

Работа в Европе для граждан РФ, Украины, СНГ

  • минимальная зарплата $500.
  • виза и контракт на полгода, возможно продление
  • проживание оплачивает работодатель
  • нужен только загранпаспорт
  • оформление 190 €
  • данное предложение - отличная возможность эмигрировать в Европу и закрепиться здесь навсегда.

  • Мы свяжемся с Вами по WhatsApp или Viber и ответим на любые вопросы.
    на нашем сайте можно почитать подробнее »

    Группа: Metallica - другие аккорды (225),   о группе (32 статей),   диски (11),   фотографии (49)
    Табулатура песни: Jump In The Fire (2)
    Просмотров: 2690
    Прислал: DiaSpar (diaspar@i.com.ua)




        
    #----------------------------------PLEASE NOTE---------------------------------#
    #This file is the author's own work and represents their interpretation of the #
    #song. You may only use this file for private study, scholarship, or research. #
    #------------------------------------------------------------------------------##
                                    JUMP IN THE FIRE
                                As recorded by Metallica
                           (From the 1982 Album KILL EM' ALL)
    
     Intro
      Q=176
      N.C.                                                        C5     Bb5
     4/4
      Gtr I
      PM------------|     PM------------|     PM------------|
      E E E E E E E S S   E E E E E E E S S   E E E E E E E E   E Q.   E Q.
    |-------------------|-------------------|-----------------|----------------|
    |-------------------|-------------------|-----------------|----------------|
    |-------------------|-------------------|-----------------|---5------3-----|
    |---------3---------|---------3---------|---------3-------|---5------3-----|
    |-----3-4---5-4-3p0-|-----3-4---5-4-3p0-|-----3-4---5-4-3-|---3------1-----|
    |-3-6---------------|-3-6---------------|-3-6-------------|----------------|
    
      N.C.                                                        C5     Bb5
      PM------------|     PM------------|     PM------------|
      E E E E E E E S S   E E E E E E E S S   E E E E E E E E   E Q.   E Q.
    |-------------------|-------------------|-----------------|---------------|
    |-------------------|-------------------|-----------------|---------------|
    |-------------------|-------------------|-----------------|---5------3----|
    |---------3---------|---------3---------|-3-------3-------|---5------3----|
    |-----3-4---5-4-3p0-|-----3-4---5-4-3p0-|---5-4-3---5-4-3-|---3------1----|
    |-3-6---------------|-3-6---------------|-----------------|---------------|
    
      N.C.
      PM------------|     PM------------|       PM--------------------------|
      E E E E E E E S S   E E E E E E E S S   a E E E E E S S E E   E E E E E Q.
    |-------------------|-------------------|---------------------|----------------|
    |-------------------|-------------------|---------------------|----------------|
    |-------------------|-------------------|---------------------|----------------|
    |---------3---------|---------3---------|-3h5-3---3-----------|---------3-5----|
    |-----3-4---5-4-3p0-|-----3-4---5-4-3p0-|-------5---5-4-4-3---|---3-4-5--------|
    |-3-6---------------|-3-6---------------|-------------------3-|-6--------------|
    
                                                                  C5     Bb5
      PM------------|     PM------------|     PM------------|
      E E E E E E E S S   E E E E E E E S S   E E E E E E E E   E Q.   E Q.
    |-------------------|-------------------|-----------------|---------------||
    |-------------------|-------------------|-----------------|---------------||
    |-------------------|-------------------|-----------------|---5------3----||
    |---------3---------|---------3---------|-3-------3-------|---5------3----||
    |-----3-4---5-4-3p0-|-----3-4---5-4-3p0-|---5-4-3---5-4-3-|---3------1----||
    |-3-6---------------|-3-6---------------|-----------------|---------------||
    
      N.C.        Bb5       F          N.C.        C5        N.C.  C#5
      PM--------|                      PM--------|
      E E E E E E Q    +Q   q  q  q    E E E E E E Q    +Q   E E E Q.
    |----------------|---------------|----------------|-----------------|
    |----------------|------1--1--1--|----------------|-----------------|
    |-------------3--|-(3)--2--2--2--|-------------5--|-(5)--x-x-x-6----|
    |-------------3--|-(3)--3--3--3--|-------------5--|-(5)--x-x-x-6----|
    |-------------1--|-(1)--3--3--3--|-------------3--|-(3)--x-x-x-4----|
    |-1-3-3-1-3-0----|------1--1--1--|-1-3-3-1-3-0----|-----------------|
    
      N.C.        Bb5       F
      Gtr I
      W                 H      Q  E E
    |----------------|------------------|
    |----------------|------------------|
    |----------------|--------------5b7-|
    |----------------|------------------|
    |----------------|------------------|
    |----------------|------------------|
    |
    | Gtr II
    | PM--------|
    | E E E E E E Q    +Q   q  q  q
    |----------------|------------------|
    |----------------|------1--1--1-----|
    |-------------3--|-(3)--2--2--2-----|
    |-------------3--|-(3)--3--3--3-----|
    |-------------1--|-(1)--3--3--3-----|
    |-1-3-3-1-3-0----|------1--1--1-----|
    
      N.C.                  C5                    C#5
                                                    ~~~
      +E  E S S S S S S S S S S S S    S  S E E E E Q.
    |-----3-------------------------|----------------------||
    |-------6p3---3-6p3---3-6p3---3-|--6p=3---------6b8----||
    |-(5)-------5-------5-------5---|-------5-3---3--------||
    |-------------------------------|-----------5----------||
    |-------------------------------|----------------------||
    |-------------------------------|----------------------||
    |
    |  PM---------------|
    |  E  E E   E   E   E   Q         +Q      E E E Q.
    |-------------------------------|----------------------||
    |-------------------------------|----------------------||
    |-----------------------5-------|-(5)-----x-x-x-6------||
    |-----------------------5-------|-(5)-----x-x-x-6------||
    |-----------------------3-------|-(3)-----x-x-x-4------||
    |--1--3-3---1---3---0-----------|----------------------||
    
       Verse
                                        1.,2.,3.
        N.C.        Bb5       F          N.C.        C5              C#5
        PM--------|                      PM--------|
        E E E E E E Q    +Q   q  q  q    E E E E E E Q    +Q   E E E Q.     4x
    ||-----------------|---------------|----------------|-------------------||
    ||o----------------|------1--1--1--|----------------|------------------o||
    ||--------------3--|-(3)--2--2--2--|-------------5--|-(5)--x-x-x-6------||
    ||--------------3--|-(3)--3--3--3--|-------------5--|-(5)--x-x-x-6------||
    ||o-------------1--|-(1)--3--3--3--|-------------3--|-(3)--x-x-x-4-----o||
    ||--1-3-3-1-3-0----|------1--1--1--|-1-3-3-1-3-0----|-------------------||
    
                                    Chorus
      4.
                                  $
      N.C.        C5        C#5      N.C.
      PM--------|                    PM------------|
      E E E E E E q    H    q  q     E E E E E E E S S
    |----------------|------------||-------------------|
    |----------------|------------||-------------------|
    |-------------5--|------6--6--||-------------------|
    |-------------5--|------6--6--||---------3---------|
    |-------------3--|------4--4--||-----3-4---5-4-3p0-|
    |-1-3-3-1-3-0----|------------||-3-6---------------|
    
      PM------------|     PM------------|
      E E E E E E E S S   E E E E E E E E
    |-------------------|------------------|
    |-------------------|------------------|
    |-------------------|------------------|
    |---------3---------|---------3--------|
    |-----3-4---5-4-3p0-|-----3-4---5-4-3--|
    |-3-6---------------|-3-6--------------|
    
        C5     Bb5    N.C.
                      PM------------|     PM------------|
      E Q.   E Q.     E E E E E E E S S   E E E E E E E S S
    |---------------|-------------------|-------------------|
    |---------------|-------------------|-------------------|
    |---5------3----|-------------------|-------------------|
    |---5------3----|---------3---------|---------3---------|
    |---3------1----|-----3-4---5-4-3p0-|-----3-4---5-4-3p0-|
    |---------------|-3-6---------------|-3-6---------------|
    
                          C5     Bb5      N.C.
      PM------------|                     PM------------|
      E E E E E E E E   E Q.   E Q.       E E E E E E E S S
    |-----------------|-----------------|--------------------|
    |-----------------|-----------------|--------------------|
    |-----------------|---5------3------|--------------------|
    |-3-------3-------|---5------3------|---------3----------|
    |---5-4-3---5-4-3-|---3------1------|-----3-4---5-4-3p0--|
    |-----------------|-----------------|-3-6----------------|
    
      N.C.
      PM------------|       PM--------------------------|
      E E E E E E E S S   a E E E E E S S E E   E E E E E Q.
    |-------------------|---------------------|----------------|
    |-------------------|---------------------|----------------|
    |-------------------|---------------------|----------------|
    |---------3---------|-3h5-3---3-----------|---------3-5----|
    |-----3-4---5-4-3p0-|-------5---5-4-4-3---|---3-4-5--------|
    |-3-6---------------|-------------------3-|-6--------------|
    
                                                     To Coda
                                                     To Coda
      PM------------|     PM------------|     PM------------|
      E E E E E E E S S   E E E E E E E S S   E E E E E E E E
    |-------------------|-------------------|------------------|
    |-------------------|-------------------|------------------|
    |-------------------|-------------------|------------------|
    |---------3---------|---------3---------|-3-------3--------|
    |-----3-4---5-4-3p0-|-----3-4---5-4-3p0-|---5-4-3---5-4-3--|
    |-3-6---------------|-3-6---------------|------------------|
    
                       Verse
        C5     Bb5      N.C.        Bb5       F
                        PM--------|
      E Q.   E Q.       E E E E E E Q    +Q   q  q  q
    |---------------||-----------------|---------------|
    |---------------||o----------------|------1--1--1--|
    |---5------3----||--------------3--|-(3)--2--2--2--|
    |---5------3----||--------------3--|-(3)--3--3--3--|
    |---3------1----||o-------------1--|-(1)--3--3--3--|
    |---------------||--1-3-3-1-3-0----|------1--1--1--|
    
     1.,2.,3.
      N.C.        C5              C#5
      PM--------|
      E E E E E E Q    +Q   E E E Q.    4x
    |----------------|------------------||
    |----------------|-----------------o||
    |-------------5--|-(5)--x-x-x-6-----||
    |-------------5--|-(5)--x-x-x-6-----||
    |-------------3--|-(3)--x-x-x-4----o||
    |-1-3-3-1-3-0----|------------------||
    
      4.
                   D.S. al Coda
      N.C.        C5        C#5
      PM--------|
      E E E E E E q    H    q  q
    |----------------|-----------||
    |----------------|-----------||
    |-------------5--|------6--6-||
    |-------------5--|------6--6-||
    |-------------3--|------4--4-||
    |-1-3-3-1-3-0----|-----------||
    
                       Interlude
      &
        C5     Bb5      Bb5                     Ab5Bb5     G5
      E Q.   E Q.       E E E E q  E E   E E q  q  E  E    E E E E q  E E
    |---------------||-----------------|-----------------|----------------|
    |---------------||o----------------|-----------------|----------------|
    |---5------3----||-----------------|-----------------|----------------|
    |---5------3----||--8-8-8-8-8--8-8-|-8-8-8--6--8-----|-5-5-5-5-5--5-5-|
    |---3------1----||o-8-8-8-8-8--8-8-|-8-8-8--6--8-----|-5-5-5-5-5--5-5-|
    |---------------||--6-6-6-6-6--6-6-|-6-6-6--4--6-(0)-|-3-3-3-3-3--3-3-|
    
      G5     F5 G5     Bb5
      Gtr I
      E E q  q  q      E  S S E  S S S S S S S S S S
    |---------------||-------------------------------|
    |--------------o||-------------------------------|
    |---------------||-------------------------------|
    |-5-5-5--3--5---||-------------------------------|
    |-5-5-5--3--5--o||-8--8-8-8--8-8-8-8-8-8-8-8-8-8-|
    |-3-3-3--1--3---||-6--6-6-6--6-6-6-6-6-6-6-6-6-6-|
    |
    | Gtr II
    | W                E  E   E  E   q       E   E
    |---------------||-------------------------------|
    |--------------o||-------------------------------|
    |---------------||-------------------------------|
    |---------------||-8--8---8--8---8-------8---8---|
    |--------------o||-8--8---8--8---8-------8---8---|
    |---------------||-6--6---6--6---6-------6---6---|
    
                      Ab5     Bb5
      S S S S S S S S S S S S Q
    |---------------------------------|
    |---------------------------------|
    |---------------------------------|
    |---------------------------------|
    |-8-8-8-8-8-8-8-8-8-8-8-8-8------|
    |-6-6-6-6-6-6-6-6-6-6-6-6-6------|
    |
    | E   E   q       q       E   E
    |---------------------------------|
    |---------------------------------|
    |---------------------------------|
    |-8---8---8-------6-------8-------|
    |-8---8---8-------6-------8-------|
    |-6---6---6-------4-------6--(0)--|
    
      G5                                N.C.  Bb5
      E E E E Q  E E   E E Q  S S S S E S S   Q   E  E  Q   E E
    |----------------|----------------------|-------------------|
    |----------------|----------------------|-------------------|
    |---------4--4-4-|-4-4-4----------------|-------------------|
    |---------5--5-5-|-5-5-5----------------|-------------------|
    |-5-5-5-5-5--5-5-|-5-5-5--5-5-5-5-5-x-x-|-8---8---------8-8-|
    |-3-3-3-3-3--3-3-|-3-3-3--3-3-3-3-3-x-x-|-6---6s18-18--6-6-|
    |
    | E E E E q  E E   E E q  q       q       E E E  E  q   E E
    |----------------|----------------------|-------------------|
    |----------------|----------------------|-------------------|
    |----------------|----------------------|-------------------|
    |-5-5-5-5-5--5-5-|-5-5-5--3-------5-----|-8-8-8--8--8---8-8-|
    |-5-5-5-5-5--5-5-|-5-5-5--3-------5-----|-8-8-8--8--8---8-8-|
    |-3-3-3-3-3--3-3-|-3-3-3--1-------3-----|-6-6-6--6--6---6-6-|
    
      Bb5       Ab5  Bb5       G5                                    F5      G5
      E  E  Q   E  E  Q        E E E E S S S S E S S   E S S S S S S S S S S Q
    |------------------------|-----------------------|----------------------------||
    |------------------------|-----------------------|----------------------------||
    |------------------------|-4-4-4-4-4-4-4-4-4-4-4-|-4-4------------------------||
    |------------------------|-5-5-5-5-5-5-5-5-5-5-5-|-5-5------------------------||
    |-8---------8------------|-5-5-5-5-5-5-5-5-5-5-5-|-5-5------------------------||
    |-6s18-18--6s18-18-----|-3-3-3-3-3-3-3-3-3-3-3-|-3-3-3-3-3-3-3-3-3-3-3-3---||
    |
    | E  E  q   q     E   E    E E E E q       E E     E E   q       q       q
    |------------------------|-----------------------|----------------------------||
    |------------------------|-----------------------|----------------------------||
    |------------------------|-----------------------|----------------------------||
    |-8--8--8---6-----8------|-5-5-5-5-5-------5-5---|-5-5---5-------3-------5----||
    |-8--8--8---6-----8------|-5-5-5-5-5-------5-5---|-5-5---5-------3-------5----||
    |-6--6--6---4-----6--(0)-|-3-3-3-3-3-------3-3---|-3-3---3-------1-------3----||
    
     Guitar Solo
      Bb5                                   Ab5   Bb5
      S S E S S E S S E S S E   S S E S S E S S E S S  E
    |-------------------------|---------------------------|
    |-6p3p0-------6p3p0-------|-6p3p0-------6p3p0---------|
    |-------5p3p0-------5p3p0-|-------5p3p0-------5p3p=0--|
    |-------------------------|---------------------------|
    |-------------------------|---------------------------|
    |-------------------------|---------------------------|
    |
    | E   E E   E q     E   E   E   E q     q     E    E
    |-------------------------|---------------------------|
    |-------------------------|---------------------------|
    |-------------------------|---------------------------|
    |-8---8-8---8-8-----8---8-|-8---8-8-----6-----8-------|
    |-8---8-8---8-8-----8---8-|-8---8-8-----6-----8-------|
    |-6---6-6---6-6-----6---6-|-6---6-6-----4-----6---(0)-|
    
      G5                          F5   G5
      E Q.     +Q   E E   E E E E +Q   E E
    |---3------(3)------|-----3----------------|
    |-3-3------(3)--6-3-|---3-3-6-(6)--3-------|
    |-------------------|-5--------------5b7===|
    |-------------------|----------------------|
    |-------------------|----------------------|
    |-------------------|----------------------|
    |
    | E E  E E  q   E E   E E q    q   q
    |-------------------|----------------------|
    |-------------------|----------------------|
    |-------------------|----------------------|
    |-5-5--5-5--5---5-5-|-5-5-5----3---5-------|
    |-5-5--5-5--5---5-5-|-5-5-5----3---5-------|
    |-3-3--3-3--3---3-3-|-3-3-3----1---3-------|
    
      Bb5
      +E   E S S E S S E E.   S
    |------3--------------------|
    |--------6p3----------------|
    |-(5)r-------5-5p3---3s==15-|
    |------------------5--------|
    |---------------------------|
    |---------------------------|
    |
    |  E   E E   E q     E E
    |---------------------------|
    |---------------------------|
    |---------------------------|
    |--8---8-8---8-8-----8-8----|
    |--8---8-8---8-8-----8-8----|
    |--6---6-6---6-6-----6-6----|
    
                              Ab5      Bb5       G5
                                                 PM        PM    PM
       E     S  S  S  S  S  S  S  S  E  Q        E Q       E  Q  E E
    |----------15------------------------------|--------------------------|
    |-------15----18p15------------------------|--------------------------|
    |-17b19-------------17p15-17p15----15-----|---3b3.5-----15----3b3.5==|
    |-------------------------------17---------|---3b3.5-----15----3b3.5==|
    |------------------------------------------|-0---------0-----0--------|
    |------------------------------------------|--------------------------|
    |
    |  E     E     q           q        E   E    E E     E E  q  E E
    |------------------------------------------|--------------------------|
    |------------------------------------------|--------------------------|
    |------------------------------------------|--------------------------|
    |--8-----8-----8-----------6--------8------|-5-5-----5-5--5--5-5------|
    |--8-----8-----8-----------6--------8------|-5-5-----5-5--5--5-5------|
    |--6-----6-----6-----------4--------6--(0)-|-3-3-----3-3--3--3-3------|
    
      G5         F5   G5      Bb5
           PM
                                    |-3-|
      +E   E  Q   Q   E E     +E  E S S S E S S S S S S S S
    |-----------------------|-------------------------------|
    |-----------------0-----|-----3-6p3---3-6p3---3-6p3-----|
    |-(3)r---15--15--0-5b7-|-(5)-------5-------5-------5s4-|
    |-(3)r---15--15--0-----|-------------------------------|
    |------0----------------|-------------------------------|
    |-----------------------|-------------------------------|
    |
    |  E   E  q   q   q        E  E E     E q       E   E
    |-----------------------|-------------------------------|
    |-----------------------|-------------------------------|
    |-----------------------|-------------------------------|
    |--5---5--5---3---5-----|--8--8-8-----8-8-------8---8---|
    |--5---5--5---3---5-----|--8--8-8-----8-8-------8---8---|
    |--3---3--3---1---3-----|--6--6-6-----6-6-------6---6---|
    
                Ab5 Bb5
      S S E E E E E E   +S  S
    |--------------------------|
    |-6p3----------------------|
    |-----5-3---3-5-5b7r(5)p3--|
    |---------5----------------|
    |--------------------------|
    |--------------------------|
    |
    | E   E q   q   E    E
    |--------------------------|
    |--------------------------|
    |--------------------------|
    |-8---8-8---6---8----------|
    |-8---8-8---6---8----------|
    |-6---6-6---4---6---(0)----|
    
      G5                              F5   G5
      E E S S E E E E E   E   +E  E E Q  a  E   E
    |-------------------|--------------------------|
    |-------------------|--------------------------|
    |---3-5p3-----------|--------------------------|
    |-5-------5-3-------|--------------------------|
    |-------------5-3-1-|-3b5r(3)-1---1------------|
    |-------------------|-----------3----3s15-(12)-|
    |
    | E E E   E q   E E   E    E  q   q     q
    |-------------------|--------------------------|
    |-------------------|--------------------------|
    |-------------------|--------------------------|
    |-5-5-5---5-5---5-5-|-5----5--5---3-----5------|
    |-5-5-5---5-5---5-5-|-5----5--5---3-----5------|
    |-3-3-3---3-3---3-3-|-3----3--3---1-----3------|
    
      Bb5
       E     +E   E  E  Q   E     +E
    |---------------------------------|
    |-17b18r(17)-15----15--17b18r(17)-|
    |-17b19r(17)-15----15--17b19r(17)-|
    |---------------17----------------|
    |---------------------------------|
    |---------------------------------|
    |
    |  E      E   E  E  q   E      E
    |---------------------------------|
    |---------------------------------|
    |---------------------------------|
    |--8------8---8--8--8---8------8--|
    |--8------8---8--8--8---8------8--|
    |--6------6---6--6--6---6------6--|
    
      Bb5       Ab5        Bb5      G5
       E  E  Q   E     +E   E  E     E  E     +E   E  S  S  E  E  E
    |-----------------------------|---------------15----------------|
    |-15----15--17b18r(17)-15-----|------------------18p15----------|
    |-15----15--17b19r(17)-15-----|-15-17b19-(17)----------17-15----|
    |----17-------------------17--|------------------------------17-|
    |-----------------------------|---------------------------------|
    |-----------------------------|---------------------------------|
    |
    |  E  E  q   q          E  E     E  E      E   E  q        E  E
    |-----------------------------|---------------------------------|
    |-----------------------------|---------------------------------|
    |-----------------------------|---------------------------------|
    |--8--8--8---6----------8-----|--5--5------5---5--5--------5--5-|
    |--8--8--8---6----------8-----|--5--5------5---5--5--------5--5-|
    |--6--6--6---4----------6-(0)-|--3--3------3---3--3--------3--3-|
    
                       F5      G5
                        ~~~~~~
       E  E     +E   E  H
    |------------------------------||
    |------------------18b20=======||
    |-15-17b19r(17)-15-------------||
    |------------------------------||
    |------------------------------||
    |------------------------------||
    |
    |  E  E      q      q      q
    |------------------------------||
    |------------------------------||
    |------------------------------||
    |--5--5------5------3------5---||
    |--5--5------5------3------5---||
    |--3--3------3------1------3---||
    
       Verse
                                               1.,2.,3.
        N.C.               C5        F          N.C.        C5        N.C.  C#5
          PM-------------|                      PM--------|
          E  E E E   E   E Q    +Q   q  q  q    E E E E E E Q    +Q   E E E Q.
    ||------------------------|---------------|----------------|-----------------||
    ||o-----------------------|------1--1--1--|----------------|----------------o||
    ||---------------------3--|-(3)--2--2--2--|-------------5--|-(5)--x-x-x-6----||
    ||---------------------3--|-(3)--3--3--3--|-------------5--|-(5)--x-x-x-6----||
    ||o--------------------1--|-(1)--3--3--3--|-------------3--|-(3)--x-x-x-4---o||
    ||----1--3-3-1---3---0----|------1--1--1--|-1-3-3-1-3-0----|-----------------||
    |
    |   Gtr I
    |     ~~~~~~~~~~~~~~~
    |    +H         +Q     Q            W             W                 W
    ||------------------------|---------------|----------------|-----------------||
    ||o-(18)-------(18)------|---------------|----------------|----------------o||
    ||------------------------|---------------|----------------|-----------------||
    ||------------------------|---------------|----------------|-----------------||
    ||o-----------------------|---------------|----------------|----------------o||
    ||------------------------|---------------|----------------|-----------------||
    
      4.
              D.S. al Dbl. Coda
      N.C.        C5        C#5
      PM--------|
      E E E E E E q    H    q  q
    |----------------|-----------||
    |----------------|-----------||
    |-------------5--|------6--6-||
    |-------------5--|------6--6-||
    |-------------3--|------4--4-||
    |-1-3-3-1-3-0----|-----------||
    
      &&
        C5      Bb5      N.C.
                         PM------------|     PM------------|
      E Q.   E  Q.       E E E E E E E S S   E E E E E E E S S
    |-----------------||-------------------|-------------------|
    |-----------------||-------------------|-------------------|
    |---5-------3-----||-------------------|-------------------|
    |---5-------3-----||---------3---------|---------3---------|
    |---3-------1-----||-----3-4---5-4-3p0-|-----3-4---5-4-3p0-|
    |-----------------||-3-6---------------|-3-6---------------|
    
                          C5     Bb5    N.C.
      PM------------|                   PM------------|
      E E E E E E E E   E Q.   E Q.     E E E E E E E S S
    |-----------------|---------------|--------------------|
    |-----------------|---------------|--------------------|
    |-----------------|---5------3----|--------------------|
    |---------3-------|---5------3----|---------3----------|
    |-----3-4---5-4-3-|---3------1----|-----3-4---5-4-3p0--|
    |-3-6-------------|---------------|-3-6----------------|
    
      N.C.                                    C5     Bb5
      PM------------|     PM------------|
      E E E E E E E S S   E E E E E E E E   E Q.   E Q.
    |-------------------|-----------------|---------------|
    |-------------------|-----------------|---------------|
    |-------------------|-----------------|---5------3----|
    |---------3---------|-3-------3-------|---5------3----|
    |-----3-4---5-4-3p0-|---5-4-3---5-4-3-|---3------1----|
    |-3-6---------------|-----------------|---------------|
    
      N.C.
      PM------------|     PM------------|
      E E E E E E E S S   E E E E E E E S S
    |-------------------|-------------------|
    |-------------------|-------------------|
    |-------------------|-------------------|
    |---------3---------|---------3---------|
    |-----3-4---5-4-3p0-|-----3-4---5-4-3p0-|
    |-3-6---------------|-3-6---------------|
    
        PM--------------------------|        PM------------|
      a E E E E E S S E E   E E E E E Q.     E E E E E E E S S
    |---------------------|----------------|-------------------|
    |---------------------|----------------|-------------------|
    |---------------------|----------------|-------------------|
    
    Узнай ВСЕ о своем друге в ВК или FB
    |-3h5-3---3-----------|---------3-5----|---------3---------| |-------5---5-4-4-3---|---3-4-5--------|-----3-4---5-4-3p0-| |-------------------3-|-6--------------|-3-6---------------| C5 Bb5 PM------------| PM------------| E E E E E E E S S E E E E E E E E E Q. E Q. |-------------------|-----------------|----------------|| |-------------------|-----------------|----------------|| |-------------------|-----------------|---5------3-----|| |---------3---------|-3-------3-------|---5------3-----|| |-----3-4---5-4-3p0-|---5-4-3---5-4-3-|---3------1-----|| |-3-6---------------|-----------------|----------------|| Outro N.C. Bb5 F Gtr II S S S S S S S S S S S S S S a E S S S S S S S S S S S S S S S S |-------------------------------------------------|-----------------------------18p15----------------------| |-------------------------------------------------|--------------------15-18p15-------18p15-------15-18p15-| |----------------------------------------15-15h17-|-17p=15----15-17b19----------------------17b19----------| |-------------------15-15-17p15----15-17----------|--------17----------------------------------------------| |-------13-13-15s17-------------17----------------|--------------------------------------------------------| |-13h15-------------------------------------------|--------------------------------------------------------| | | Gtr I | PM---------------------------| | E E E E E E Q +Q q q q |-------------------------------------------------|--------------------------------------------------------| |-------------------------------------------------|---------------1--------------1-----------1-------------| |--------------------------------------3----------|-(3)-----------2--------------2-----------2-------------| |--------------------------------------3----------|-(3)-----------3--------------3-----------3-------------| |--------------------------------------1----------|-(1)-----------3--------------3-----------3-------------| |--1-----3-----3-----1-----3-----0----------------|---------------1--------------1-----------1-------------| N.C. C5 S S S S S S S S S S S S S S S S |-18p15----------------------18p15----------------------| |-------18p15-------15-18p15-------18p15-------15-15-18-| |-------------17b19----------------------17b19----------| |-------------------------------------------------------| |-------------------------------------------------------| |-------------------------------------------------------| | | PM------------------------------| | E E E E E E Q |-------------------------------------------------------| |-------------------------------------------------------| |-----------------------------------------5-------------| |-----------------------------------------5-------------| |-----------------------------------------3-------------| |--1-----3-----3--------1-----3-----0-------------------| C5 C#5 N.C. Bb5 S S E E E E Q E Q a +S S E +Q Q |-----------------------------|------------------------18b20-(18)---18b20--| |-18p=15----------------------|-18b20---18pb20r(18)p15---------------------| |--------17-15----15-17b19----|--------------------------------------------| |--------------17-----------0-|--------------------------------------------| |-----------------------------|--------------------------------------------| |-----------------------------|--------------------------------------------| | | PM-------------------------------| | +Q E E E Q. E E E E E E Q |-----------------------------|--------------------------------------------| |-----------------------------|--------------------------------------------| |-(5)--------x--x--x--6-------|--------------------------------------3-----| |-(5)--------x--x--x--6-------|--------------------------------------3-----| |-(3)--------x--x--x--4-------|--------------------------------------1-----| |-----------------------------|--1----3--3--------------1------3--0--------| F E +S S E E Q E E |-18b20r=(18)p15----15--------------15--| |----------------18----18b20--18b20-----| |---------------------------------------| |---------------------------------------| |---------------------------------------| |---------------------------------------| | | +Q q q q |---------------------------------------| |-----------------1-----1------1--------| |-(3)-------------2-----2------2--------| |-(3)-------------3-----3------3--------| |-(1)-------------3-----3------3--------| |-----------------1-----1------1--------| N.C. C5 C#5 ~~~~~~ S S S S S S S S S S E E S S E E +Q Q E E |-18p15----15-18p15----------------------------|---------------------------------------| |-------18----------18p15-18p15----------------|-----18-----(18)----18----------18--15-| |--------------------------------17--15-----15-|-15--17b19--(17)----17b19=======17r----| |----------------------------------------17----|---------------------------------------| |----------------------------------------------|---------------------------------------| |----------------------------------------------|---------------------------------------| | | PM----------------------------| | E E E E E E Q +Q E E E Q. |----------------------------------------------|---------------------------------------| |----------------------------------------------|---------------------------------------| |-------------------------------------5--------|-(5)----------x--x---x-----6-----------| |-------------------------------------5--------|-(5)----------x--x---x-----6-----------| |-------------------------------------3--------|-(3)----------x--x---x-----4-----------| |--1-----3-----3-----1-----3------0------------|---------------------------------------| N.C. Bb5 Q a +S S E E E E E |--------------------------------------------------| |-18b20----18pb20r(18)p15--------------------------| |-------------------------17--15------15--17pb19r==| |---------------------------------17---------------| |--------------------------------------------------| |--------------------------------------------------| | | PM-----------------------------| | E E E E E E Q |--------------------------------------------------| |--------------------------------------------------| |--------------------------------------3-----------| |--------------------------------------3-----------| |--------------------------------------1-----------| |--1----3---3--------------1---3---0---------------| F +S S E E E E +S +S E E |---------------------------------------------------| |---------------------------------------------------| |-(17)-15------15--17b19--15b17===(15)r(15)------15-| |----------17--------------------------------17-----| |---------------------------------------------------| |---------------------------------------------------| | | +Q q q q |---------------------------------------------------| |---------------1----------1------------------1-----| |--(3)----------2----------2------------------2-----| |--(3)----------3----------3------------------3-----| |--(1)----------3----------3------------------3-----| |---------------1----------1------------------1-----| N.C. C5 C#5 E E S S E E E E E +S S E E E E +E E E |----------------------------------------|---------------------------------------------| |--------15--18p15-----------------------|---------------------------------------------| |-17b19------------17--15------15--17b19r|=(17)p15------15--17b19--15b17r=(15)------15-| |--------------------------17------------|----------17--------------------------17-----| |----------------------------------------|---------------------------------------------| |----------------------------------------|---------------------------------------------| | | PM----------------------| | E E E E E E Q +Q E E E Q. |----------------------------------------|---------------------------------------------| |----------------------------------------|---------------------------------------------| |-------------------------------5--------|--(5)----------x---x------x-------6----------| |-------------------------------5--------|--(5)----------x---x------x-------6----------| |-------------------------------3--------|--(3)----------x---x------x-------4----------| |--1------3---3-----1---3---0------------|---------------------------------------------| N.C. Bb5 E E S S S S S S S S S S S S |------------------------------------------------------| |--------15--18p15-18p15-------15-18p15-18p15-------15-| |-17b19------------------17b19----------------17b19----| |------------------------------------------------------| |------------------------------------------------------| |------------------------------------------------------| | | PM-----------------------------| | E E E E E E Q |------------------------------------------------------| |------------------------------------------------------| |----------------------------------------3-------------| |----------------------------------------3-------------| |----------------------------------------1-------------| |--1------3---3-----1-----3--------0-------------------| F N.C. C5 S S S S S S S S S S S S S S S S S S S S S S S S S S S S S S S S |-----------------------------------------------------|-------------------------------------------------| |-18p=15-18p15-------15-18p15-18p15----15-18p15----15-|-18p15----15-18p15-18p15----15-18p15-18p15----15-| |--------------17b19----------------17----------17----|-------17----------------17----------------17----| |-----------------------------------------------------|-------------------------------------------------| |-----------------------------------------------------|-------------------------------------------------| |-----------------------------------------------------|-------------------------------------------------| | | PM---------------------------| | +Q q q q E E E E E E Q |-----------------------------------------------------|-------------------------------------------------| |---------------1--------------1-----------1----------|-------------------------------------------------| |-(3)-----------2--------------2-----------2----------|--------------------------------------5----------| |-(3)-----------3--------------3-----------3----------|--------------------------------------5----------| |-(1)-----------3--------------3-----------3----------|--------------------------------------3----------| |---------------1--------------1-----------1----------|--1-----3-----3-----1-----3-----0----------------| C5 C#5 |--3--| S S a S S S S S a S S Q E E |---------------------------------------------(0)-15-| |-18p=15-15h18p15-15h18p15-15h18p15-18b20------------| |----------------------------------------------------| |----------------------------------------------------| |----------------------------------------------------| |----------------------------------------------------| | | +Q E E E Q. |----------------------------------------------------| |----------------------------------------------------| |-(5)--------------x-----------x-----x----6----------| |-(5)--------------x-----------x-----x----6----------| |-(3)--------------x-----------x-----x----4----------| |----------------------------------------------------| N.C. Bb5 F S S S S S S S S S S S S S S S S S S S S S S S S S S S S S S S S |-17-15-15-15-18-15-15-15-20-15-15-15-18-15-15-15-|-17--15-15-15-18-15-15-15-20-15-15-15-18-15-15-15-| |-------------------------------------------------|--------------------------------------------------| |-------------------------------------------------|--------------------------------------------------| |-------------------------------------------------|--------------------------------------------------| |-------------------------------------------------|--------------------------------------------------| |-------------------------------------------------|--------------------------------------------------| | | PM---------------------------| | E E E E E E Q +Q q q q |-------------------------------------------------|--------------------------------------------------| |-------------------------------------------------|---------------1-----------1-----------1----------| |--------------------------------------3----------|-(3)-----------2-----------2-----------2----------| |--------------------------------------3----------|-(3)-----------3-----------3-----------3----------| |--------------------------------------1----------|-(1)-----------3-----------3-----------3----------| |--1-----3-----3-----1-----3-----0----------------|---------------1-----------1-----------1----------| N.C. C5 S S S S S S S S S S S S S S S S |-17-15-15-15-18-15-15-15-20-15-15-15-18-15-15-15-| |-------------------------------------------------| |-------------------------------------------------| |-------------------------------------------------| |-------------------------------------------------| |-------------------------------------------------| | | PM---------------------------| | E E E E E E Q |-------------------------------------------------| |-------------------------------------------------| |--------------------------------------5----------| |--------------------------------------5----------| |--------------------------------------3----------| |--1-----3-----3-----1-----3-----0----------------| C#5 N.C. Bb5 S S S S S S S S S S S S S S S S S S S S S S S S S S S S S S S S |-17--15-15-15-18-15-15-15-20-15-15--15-18-15-15-15-|-17-15-15-15-18-15-15-15-20-15-15-15-22-15-15-15-| |---------------------------------------------------|-------------------------------------------------| |---------------------------------------------------|-------------------------------------------------| |---------------------------------------------------|-------------------------------------------------| |---------------------------------------------------|-------------------------------------------------| |---------------------------------------------------|-------------------------------------------------| | | PM---------------------------| | +Q E E E Q. E E E E E E Q |---------------------------------------------------|-------------------------------------------------| |---------------------------------------------------|-------------------------------------------------| |-(5)-----------x-----x-----x-----6-----------------|--------------------------------------3----------| |-(5)-----------x-----x-----x-----6-----------------|--------------------------------------3----------| |-(3)-----------x-----x-----x-----4-----------------|--------------------------------------1----------| |---------------------------------------------------|--1-----3-----3-----1-----3-----0----------------| F N.C. C5 S S S S S S S S S S S S S S S S S S S S S S S S S S S S S S S S |-20--15-15-15-18-15-15-15-17-15-15-15-18-15-15-15-|-20-15-15-15-18-15-15-15-17-15-15-15-18-15-15-15-| |--------------------------------------------------|-------------------------------------------------| |--------------------------------------------------|-------------------------------------------------| |--------------------------------------------------|-------------------------------------------------| |--------------------------------------------------|-------------------------------------------------| |--------------------------------------------------|-------------------------------------------------| | | PM---------------------------| | +Q q q q E E E E E E Q |--------------------------------------------------|-------------------------------------------------| |---------------1-----------1-----------1----------|-------------------------------------------------| |-(3)-----------2-----------2-----------2----------|--------------------------------------5----------| |-(3)-----------3-----------3-----------3----------|--------------------------------------5----------| |-(1)-----------3-----------3-----------3----------|--------------------------------------3----------| |---------------1-----------1-----------1----------|--1-----3-----3-----1-----3-----0----------------| C#5 S S S S S S S S S S S S S S S S |-20--15-15-15-18-15-15-15-17-15-15--15-18-15-15-15-| |---------------------------------------------------| |---------------------------------------------------| |---------------------------------------------------| |---------------------------------------------------| |---------------------------------------------------| | | +Q E E E Q. |---------------------------------------------------| |---------------------------------------------------| |-(5)-----------x-----x-----x-----6-----------------| |-(5)-----------x-----x-----x-----6-----------------| |-(3)-----------x-----x-----x-----4-----------------| |---------------------------------------------------| N.C. Bb5 S S S S S S a S S S S S S S S S S |-18p15-------18p15-15h18p15----15-18p15-18p15----15-| |-------18p15----------------18----------------18----| |----------------------------------------------------| |----------------------------------------------------| |----------------------------------------------------| |----------------------------------------------------| | | PM------------------------------| | E E E E E E Q |----------------------------------------------------| |----------------------------------------------------| |-----------------------------------------3----------| |-----------------------------------------3----------| |-----------------------------------------1----------| |--1-----3-----3--------1-----3-----0----------------| F5 N.C. C5 S S S S S S S S S S S S S S E Q Q S S E E E |-18p=15-18p15----15-18p15-18p15----15-18p15-18-|-18b20----18b20---18p15-----15--18b20r==| |--------------18----------------18-------------|------------------------18--------------| |-----------------------------------------------|----------------------------------------| |-----------------------------------------------|----------------------------------------| |-----------------------------------------------|----------------------------------------| |-----------------------------------------------|----------------------------------------| | | PM--------------------| | +Q q q q E E E E E E Q |-----------------------------------------------|----------------------------------------| |---------------1-----------1-----------1-------|----------------------------------------| |-(3)-----------2-----------2-----------2-------|-----------------------------5----------| |-(3)-----------3-----------3-----------3-------|-----------------------------5----------| |-(1)-----------3-----------3-----------3-------|-----------------------------3----------| |---------------1-----------1-----------1-------|--1----3---3----1--3-----0--------------| C5 C#5 S S E E E Q a +E E |-(18)p15----15-18-18b20----18pb20r(18)-15-| |---------18-------------------------------| |------------------------------------------| |------------------------------------------| |------------------------------------------| |------------------------------------------| | | +Q E E E Q. |------------------------------------------| |------------------------------------------| |--(5)--------x--x--x----6-----------------| |--(5)--------x--x--x----6-----------------| |--(3)--------x--x--x----4-----------------| |------------------------------------------| N.C. Bb5 F |---3---| |---3---| |---3---| |--3--| |--3---| |----3-----| E E E E E E E E E E E E E E E E E E E E +E E |-18p15------15-----------------------------|-------------------------------------| |---------18----18---15-18p15------15-------|-------------------------------------| |-------------------------------17----17-15-|-17p=15----15----15-17-17b19r(17)p15-| |-------------------------------------------|--------17----17---------------------| |-------------------------------------------|-------------------------------------| |-------------------------------------------|-------------------------------------| | | PM-------------------------| | E E E E E E Q +Q q q q |-------------------------------------------|-------------------------------------| |-------------------------------------------|------------1-----1-----1------------| |-----------------------------------3-------|-(3)--------2-----2-----2------------| |-----------------------------------3-------|-(3)--------3-----3-----3------------| |-----------------------------------1-------|-(1)--------3-----3-----3------------| |--1----3-----3----1-----3----0-------------|------------1-----1-----1------------| N.C. C5 C#5 E E E E E E E E E +E +E +E +E +E E E |-------------------------|----------------------------------------------| |-------------------------|-17b18==(17)r(17)b18==(17)r(17)b18-(17)-------| |----15-17p15----15-17-15-|-17b19==(17)r(17)b19==(17)r(17)b19-(17)-17-15-| |-17----------17----------|----------------------------------------------| |-------------------------|----------------------------------------------| |-------------------------|----------------------------------------------| | | PM------------| | E E E E E E Q +Q E E E Q. |-------------------------|----------------------------------------------| |-------------------------|----------------------------------------------| |--------------------5----|-(5)-----------x--------x----x-------6--------| |--------------------5----|-(5)-----------x--------x----x-------6--------| |--------------------3----|-(3)-----------x--------x----x-------4--------| |--1--3--3--1--3--0-------|----------------------------------------------| N.C. Bb5 S S E E E E E E E |-----------------------------| |-----------------------------| |-17p15-----------------------| |-------17-15-----------------| |-------------17-15-13-15-13--| |-----------------------------| | | PM---------------| | E E E E E E Q |-----------------------------| |-----------------------------| |-----------------------3-----| |-----------------------3-----| |-----------------------1-----| |--1-----3--3--1--3--0--------| C5 N.C. C5 ~~~~~~~ E +S S E E +E E E E E E E E E E E +S S |----------------------------------|---------------------------------| |----------------------------------|---------------------------------| |----------------------------------|-------------15-17-17b19r(17)p15-| |----------------------------------|-------15-17---------------------| |-15b17r(15)p13----13-(13)------13-|-15s17---------------------------| |---------------15-----------15----|---------------------------------| | | PM------------| | +Q q q q E E E E E E Q |----------------------------------|---------------------------------| |----------------1------1-----1----|---------------------------------| |-(3)------------2------2-----2----|--------------------5------------| |-(3)------------3------3-----3----|--------------------5------------| |-(1)------------3------3-----3----|--------------------3------------| |----------------1------1-----1----|--1--3--3--1--3--0---------------| C#5 N.C. Bb5 ~~~~~~~ E E E E +E E E E +E E E E E E Q |--------------------------------|-----------------------------------| |--------------------------------|------18-------18-------18-18------| |-17--15----15-(15)-----15-17b19-|-(17)----17b19----17b19----17b19r==| |--------17---------17-----------|-----------------------------------| |--------------------------------|-----------------------------------| |--------------------------------|-----------------------------------| | | PM-------------------| | +Q E E E Q. E E E E E E Q |--------------------------------|-----------------------------------| |--------------------------------|-----------------------------------| |-(5)-----x--x---x---6-----------|----------------------------3------| |-(5)-----x--x---x---6-----------|----------------------------3------| |-(3)-----x--x---x---4-----------|----------------------------1------| |--------------------------------|---1---3--3-----1--3-----0---------| F5 a +Q a +Q a +Q a +Q |-------------------------------------------------------------| |-(18)-----(18)--(18)-----(18)--(18)-----(18)--(18)-----(18)--| |-(17)b19==(17)r=(17)b19==(17)r=(17)b19==(17)r=(17)b19==(17)--| |-------------------------------------------------------------| |-------------------------------------------------------------| |-------------------------------------------------------------| | | +Q q q q |-------------------------------------------------------------| |---------------------------1--------------1--------------1---| |-----------(3)-------------2--------------2--------------2---| |-----------(3)-------------3--------------3--------------3---| |-----------(1)-------------3--------------3--------------3---| |---------------------------1--------------1--------------1---| N.C. C5 C#5 +W W |-------------------|-----------------*| |-(18)--------------|-----------------*| |-(17)--------------|-----------------*| |-------------------|-----------------*| |-------------------|-----------------*| |-------------------|-----------------*| | | PM---------| | E E E E E E Q +Q E E E Q. |-------------------|-----------------*| |-------------------|-----------------*| |----------------5--|-(5)--x-x-x-6----*| |----------------5--|-(5)--x-x-x-6----*| |----------------3--|-(3)--x-x-x-4----*| |---1--3-3-1-3-0----|-----------------*| Duration Legend --------------- W - whole; H - half; Q - quarter; E - 8th; S - 16th; T - 32nd; X - 64th; a - acciaccatura + - note tied to previous; . - note dotted; .. - note double dotted Uncapitalized letters represent notes that are staccato (1/2 duration) Irregular groupings are notated above the duration line Duration letters will always appear directly above the note/fret number it represents the duration for. Duration letters with no fret number below them represent rests. Multi- bar rests are notated in the form Wxn, where n is the number of bars to rest for. Low melody durations appear below the staff Tablature Legend ---------------- h - hammer-on p - pull-off b - bend pb - pre-bend r - bend release (if no number after the r, then release immediately) / - slide into or out of (from/to "nowhere") s - legato slide S - shift slide - natural harmonic [n] - artificial harmonic n(n) - tapped harmonic ~ - vibrato tr - trill T - tap TP - trem. picking PM - palm muting n/ - tremolo bar dip; n = amount to dip n - tremolo bar down n/ - tremolo bar up /n - tremolo bar inverted dip = - hold bend; also acts as connecting device for hammers/pulls <> - volume swell (louder/softer) x - on rhythm slash represents muted slash o - on rhythm slash represents single note slash Misc Legend ----------- | - bar || - double bar ||o - repeat start o|| - repeat end *| - double bar (ending) : - bar (freetime) $ - Segno & - Coda Tempo markers - = BPM(8/16=s8/s16), where s8 = swing 8ths, s16 = swing 16ths *************************************************************************************** * Generated using Power Tab Editor by Brad Larsen - http://powertab.guitarnetwork.org * ***************************************************************************************

    http://www.powertabs.net
    найти лекарство
    список лекарств

    http://klubok51.my1.ru Line вязание спицами схемы модели узоры

    klubok51.my1.ru








    О сайтеАккордыХит-парадПоискУроки ФорумыИщу песню
    ПрограммыСвежачок-сПодпискаСтатьи
    Яндекс.Метрика