Табулатура Metallica | Hit The Lights  (2) гитара табулатуры уроки тексты песен Metallica текст lyrics песня аккорды песни ноты нота электрогитара струна  
   А Б В Г Д Е Ж З И К Л М Н О П Р С Т У Ф Х Ч Ш Ы Э Ю Я       Разные песни
1-9 A B C D E F G H I J K L M N O P Q R S T U V W Y Z      Все исполнители in english

    



группа Metallica, Табулатура песни Hit The Lights (2)

Работа в Европе для граждан РФ, Украины, СНГ

  • минимальная зарплата $500.
  • виза и контракт на полгода, возможно продление
  • проживание оплачивает работодатель
  • нужен только загранпаспорт
  • оформление 190 €
  • данное предложение - отличная возможность эмигрировать в Европу и закрепиться здесь навсегда.

  • Мы свяжемся с Вами по WhatsApp или Viber и ответим на любые вопросы.
    на нашем сайте можно почитать подробнее »

    Группа: Metallica - другие аккорды (225),   о группе (32 статей),   диски (11),   фотографии (49)
    Табулатура песни: Hit The Lights (2)
    Просмотров: 3085
    Прислал: DiaSpar (diaspar@i.com.ua)




        
    #----------------------------------PLEASE NOTE---------------------------------#
    #This file is the author's own work and represents their interpretation of the #
    #song. You may only use this file for private study, scholarship, or research. #
    #------------------------------------------------------------------------------##
                                     HIT THE LIGHTS
                                As recorded by Metallica
                           (From the 1983 Album KILL 'EM ALL)
    Words and Music by James Hetfield, and Lars Ulrich
              A5                   D5                   G5                   E5
          x 0 2 2 x x          x 5 7 7 x x          3 5 5 x x x          x 7 9 x x x
              B5               E5(type 2)               A5V                  C5
          7 9 9 x x x          x 7 9 9 x x          5 7 7 x x x          x 3 5 5 x x
              F#5                  Am7
          2 4 x x x x          5 7 5 5 5 5
    Gtr I (E A D G B E) - 'Rhythm (James)'
    Gtr II (E A D G B E) - 'Pick Slide Sound'
    Gtr III (E A D G B E) - 'Palm Mute Sound'
    Gtr IV (E A D G B E) - 'Rhythm (James/Kirk Live)'
    Gtr V (E A D G B E) - 'Lead (Kirk)'
     Intro
      Moderate Rock Q=144
                     E5
     4/4
      Gtrs I, IV
                      TP             TP
      W        a     +W          4x +H     Q  Q
    |------------||--------------||--------------:
    |------------||o------------o||--------------:
    |------------||--------------||--------------:
    |----------2-||--(2)---------||-(2)----2--2--:
    |----------2-||o-(2)--------o||-(2)----2--2--:
    |----------0-||--(0)---------||-(0)----0--0--:
    
                                      F#5
                                      TP
      Q  Q  Q  Q    W          +H     H
    |-------------:----------:-------------:
    |-------------:----------:-------------:
    |-------------:----------:-------------:
    |-2--2--2--2--:-2--------:-(2)---------:
    |-2--2--2--2--:-2--------:-(2)----4----:
    |-0--0--0--0--:-0--------:-(0)----2----:
    
                                  Faster Q=160
                                    N.C.
                                    Gtr II
         TP                         TP
        +W          4x +W           W
    ||--------------||------------:-------:
    ||o------------o||------------:-------:
    ||--------------||------------:-------:
    ||--------------||------------:-------:
    ||o-(4)--------o||-(4)--------:-x----:
    ||--(2)---------||-(2)--------:-x----:
    
      A5            C5D5      G5  Am7           N.C.
      GtGtrs I, III Gtr I           Gtrs I, III Gtr I
        PM--------|                 PM--------|
      E S S S S S S E S S +E  E   E S S S S S S S S S S +S  S E
    |---------------------------|-------------------------------|
    |---------------------------|-------------------------------|
    |---------------5-7-7-(7)-0-|-5-----------------------------|
    |-5-------------5-7-7-(7)-0-|-5-------------7p5---5-(5)-----|
    |-0-0-0-0-0-0-0-------------|---0-0-0-0-0-0-----7-------6-7-|
    |---------------------------|-------------------------------|
    
      A5            G5D5      G5
        Gtrs I, III Gtr I
        PM--------|
      E S S S S S S E S S +S  S E
    |-----------------------------|
    |-----------------------------|
    |---------------5-7-7-(7)-0-0-|
    |-5-------------5-7-7-(7)-0-0-|
    |-0-0-0-0-0-0-0---------------|
    |-----------------------------|
    
      Am7           N.C.
      Gtr IV
      W
        Gtrs I, III Gtr I
        PM--------|       ~~~~~~~~~~
      E S S S S S S S S S S    +Q
    |--------------------------------|
    |--------------------------------|
    |-5-------------------7b9==(7)r--|
    |-5------------------------------|
    |---0-0-0-0-0-0-6h7--------------|
    |--------------------------------|
    
      A5            C5D5      G5  A5            N.C.
      Q     Q       H             Q     Q       H
      |                           |
      /                           /
            Gtrs I, Gtr I           Gtrs I, III Gtr I
        PM--------|                 PM--------|
      E S S S S S S E S S +E  E   E S S S S S S S S S S +S  S E
    |---------------------------|-------------------------------|
    |---------------------------|-------------------------------|
    |---------------5-7-7-(7)-0-|-5-----------------------------|
    |-5-------------5-7-7-(7)-0-|-5-------------7p5---5-(5)-----|
    |-0-0-0-0-0-0-0-------------|---0-0-0-0-0-0-----7-------6h7-|
    |---------------------------|-------------------------------|
    
      A5            C5D5      G5    A5          N.C.
      Q     Q       H               Q     Q         H
      |                             |
      /                             /
        Gtrs I, III Gtr I             Gtrs I, III Gtr I
        PM--------|                   PM--------|
      E S S S S S S E S S +S  S E   E S S S S S S   H
    |-----------------------------|------------------------|
    |-----------------------------|------------------------|
    |---------------5-7-7-(7)-0-0-|-5----------------------|
    |-5-------------5-7-7-(7)-0-0-|-5-------------(<5>)----|
    |-0-0-0-0-0-0-0---------------|---0-0-0-0-0-0----------|
    |-----------------------------|------------------------|
    
        A5            C5D5      G5
        W
          Gtrs I, III,Gtrs I, IV
          PM--------|
        E S S S S S S E S S +S  S E
    ||------------------------------|
    ||o-----------------------------|
    ||----------------5-7-7-(7)-0-0-|
    ||--5-------------5-7-7-(7)-0-0-|
    ||o-0-0-0-0-0-0-0---------------|
    ||------------------------------|
    
                                       1st Verse
                                                      $
      Am7           N.C.                D5     G5         D5     N.C.
        Gtrs I, III,Gtrs I, IV
        PM--------|
      E S S S S S S S S S S +S  S E     E Q.   E Q.       E Q.   E. S +E  E
    |--------------------------------||---------------||--------------------|
    |-------------------------------o||---------------||o-------------------|
    |-5------------------------------||-7-7-----------||--7-7---------------|
    |-5-------------7p5---5-(5)------||-7-7----5-5----||--7-7---------------|
    |---0-0-0-0-0-0-----7-------6h7-o||-5-5----5-5----||o-5-5----3--2-(2)---|
    |--------------------------------||--------3-3----||------------------3-|
    
      A5            C5D5      G5    Am7           N.C.
        Gtrs I, III,Gtrs I, IV        Gtrs I, III,Gtrs I, IV
        PM--------|                   PM--------|
      E S S S S S S E S S +S  S E   E S S S S S S S S S S +S  S E
    |-----------------------------|-------------------------------|
    |-----------------------------|-------------------------------|
    |---------------5-7-7-(7)-0-0-|-5-----------------------------|
    |-5-------------5-7-7-(7)-0-0-|-5-------------7p5---5-(5)-----|
    |-0-0-0-0-0-0-0---------------|---0-0-0-0-0-0-----7-------6h7-|
    |-----------------------------|-------------------------------|
    
      A5            C5D5      G5
        Gtrs I, III,Gtrs I, IV
        PM--------|
      E S S S S S S E S S +S  S E
    |-------------------------------|
    |-------------------------------|
    |---------------5-7-7-(7)-0-0---|
    |-5-------------5-7-7-(7)-0-0---|
    |-0-0-0-0-0-0-0-----------------|
    |-------------------------------|
    
      Am7           N.C.              D5     G5       D5     N.C.
        Gtrs I, III,Gtrs I, IV
        PM--------|
      E S S S S S S S S S S +S  S E   E Q.   E Q.     E Q.   E. S +E  E
    |-------------------------------|---------------|-------------------|
    |-------------------------------|---------------|-------------------|
    |-5-----------------------------|-7-7-----------|-7-7---------------|
    |-5-------------7p5---5-(5)-----|-7-7----5-5----|-7-7---------------|
    |---0-0-0-0-0-0-----7-------6h7-|-5-5----5-5----|-5-5----3--2-(2)---|
    |-------------------------------|--------3-3----|-----------------3-|
    
      A5            C5D5      G5    Am7           N.C.                E5
        Gtrs I, III,Gtrs I, IV        Gtrs I, III,Gtrs I, IV
        PM--------|                   PM--------|
      E S S S S S S E S S +S  S E   E S S S S S S S S S S +S  S E   E Q.   +H
    |-----------------------------|-------------------------------|---------------|
    |-----------------------------|-------------------------------|---------------|
    |---------------5-7-7-(7)-0-0-|-5-----------------------------|---------------|
    |-5-------------5-7-7-(7)-0-0-|-5-------------7p5---5-(5)-----|---9----(9)----|
    |-0-0-0-0-0-0-0---------------|---0-0-0-0-0-0-----7-------6h7-|---7----(7)----|
    |-----------------------------|-------------------------------|-0-------------|
    
                   Chorus
      N.C.          A5     N.A5       N.A5     C5 G5
                                     7/8
      |-3-| |-3-|
      Q Q Q Q Q Q   E E Q  S S E Q    S S E Q  E. S +E
    |-------------|-----------------|-------------------|
    |-------------|-----------------|-------------------|
    |-------------|-----------------|-------------------|
    |-------------|-2---2----2---2--|---2---2--5--------|
    |-------3-2---|-0---0----0---0--|---0---0--3--5-(5)-|
    |-3-2-3-----3-|--------3--------|-3-----------3-(3)-|
    
      A5     N.A5       N.A5     C5 G5      A5     N.A5
     4/4               7/8                 4/4
      E E Q  S S E Q    S S E Q  E. S +E    E E Q  S S E Q
    |-----------------|-------------------|-----------------|
    |-----------------|-------------------|-----------------|
    |-----------------|-------------------|-----------------|
    |-2---2----2---2--|---2---2--5--------|-2---2----2---2--|
    |-0---0----0---0--|---0---0--3--5-(5)-|-0---0----0---0--|
    |--------3--------|-3-----------3-(3)-|--------3--------|
    
                                   To Coda
      N.A5     C5 G5      A5     N.A5
     7/8                 4/4
      S S E Q  E. S +E    E E Q  S S E Q    W
    |-------------------|-----------------|------||
    |-------------------|-----------------|------||
    |-------------------|-----------------|------||
    |---2---2--5--------|-2---2----2---2--|------||
    |---0---0--3--5-(5)-|-0---0----0---0--|------||
    |-3-----------3-(3)-|--------3--------|------||
    
     Interlude 1
      1.
      A5                            C5       D5       G5
               Gtrs I, III, IV      Gtrs I, IV
                PM---------------|
       E        S  S  S     S  S  S  E        S  S +S  S  E
    |----------------------------------------------------------|
    |----------------------------------------------------------|
    |--------------------------------5--------7--7-(7)-0--0----|
    |--5-----------------------------5--------7--7-(7)-0--0----|
    |--0--------0--0--0-----0--0--0----------------------------|
    |----------------------------------------------------------|
    |
    | Gtr V
    |  S     S  S  S  S     S  S  S  S     S  S  S  S  S  S  S
    |-------17----------------------------17-------20p17-------|
    |----------20p17-------17-20p17----------20p17-------20p17-|
    |-19b21----------19b21----------19b21----------------------|
    |----------------------------------------------------------|
    |----------------------------------------------------------|
    |----------------------------------------------------------|
    
      Am7                        N.C.
               Gtrs I, III, IV   Gtrs I, IV
                PM------------|
       E        S  S  S  S  S  S  S  S  S  S +S   S  E
    |-----------------------------------------------------|
    |-----------------------------------------------------|
    |--5--------------------------------------------------|
    |--5--------------------------7p=5-----5-(5)----------|
    |-----------0--0--0--0--0--0--------7---------6h=7----|
    |-----------------------------------------------------|
    |
    |  S     S  S  S  S  S  S  S  S  S  S  S  S   S  S  S
    |-------17-------20p17--------------------------------|
    |----------20p17-------20-17s16-17-20p17--------------|
    |-19b21----------------------------------19--17----17-|
    |-----------------------------------------------19----|
    |-----------------------------------------------------|
    |-----------------------------------------------------|
    
      A5                            C5       D5          G5
               Gtrs I, III, IV      Gtrs I, IV
                PM---------------|
       E        S  S  S     S  S  S  E        S  S +S    S E
    |--------------------------------------------------------|
    |--------------------------------------------------------|
    |--------------------------------5--------7--7-(7)---0-0-|
    |--5-----------------------------5--------7--7-(7)---0-0-|
    |--0--------0--0--0-----0--0--0--------------------------|
    |--------------------------------------------------------|
    |
    |  S     S  S  S  S     S  S  S  S     S  S  S  Q
    |----------------------------------------------20b22-----|
    |-------17-20p17-------17-20p17-------17-20p17-----------|
    |-19b21----------19b21----------19b21--------------------|
    |--------------------------------------------------------|
    |--------------------------------------------------------|
    |--------------------------------------------------------|
    
      Am7                     N.C.
            Gtrs I, III, IV   Gtrs I, IV
             PM------------|
       E     S  S  S  S  S  S  S     S  S  S +S     S E
    |----------------------------------------------------|
    |----------------------------------------------------|
    |--5-------------------------------------------------|
    |--5-----------------------7p====5-----5-(5)---------|
    |--------0--0--0--0--0--0-----------7-----------6h7--|
    |----------------------------------------------------|
    |
    |  S  S  S  S  S  S  S  S  S     S  S  S  Q
    |-20p17-17-17-20p17----------------------------------|
    |-------------------20p17-------17-20p17-------------|
    |-------------------------19b21----------19b22=======|
    |----------------------------------------------------|
    |----------------------------------------------------|
    |----------------------------------------------------|
    
     2nd Verse                  Interlude 2
                                2.
      D5              G5         A5                          C5       D5           G5
                                       Gtrs I, III, IV       Gtrs I, IV
                                        PM-----------------|
        E       Q.    E Q.        E     S  S    S  S  S    S  E       S    S +S    S  E
    |-------------------------||--------------------------------------------------------|
    |------------------------o||--------------------------------------------------------|
    |---7-------7-------------||------------------------------5-------7----7-(7)---0--0-|
    |---7-------7-----5-5-----||--5---------------------------5-------7----7-(7)---0--0-|
    |---5-------5-----5-5----o||--0-----0--0----0--0--0----0----------------------------|
    |-----------------3-3-----||--------------------------------------------------------|
    |
    |                                                         |----3-----|
    |  +S   +E.    Q  H           E     S  E       S  E       E  E       E    E       E
    |-------------------------||-------17---------17---------17---------17-----------17-|
    |------------------------o||-20b22----20b22------20b22------20b22--------20b22------|
    |-(19)r(19)---------------||--------------------------------------------------------|
    |-------------------------||--------------------------------------------------------|
    |------------------------o||--------------------------------------------------------|
    |-------------------------||--------------------------------------------------------|
    
      Am7                                N.C.
               Gtrs I, III, IV           Gtrs I, IV
                PM---------------------|
       E        S    S  S S       S    S  S    S  S  S    +S   S  E
    |---------------------------------------------------------------------|
    |---------------------------------------------------------------------|
    |--5------------------------------------------------------------------|
    |--5----------------------------------7p===5-----5----(5)-------------|
    |-----------0----0--0-0-------0----0----------7------------6h=7-------|
    |---------------------------------------------------------------------|
    |
    |                   |-----3------|
    |  S     S  E       E    E       E    E       S  E         S  S     S
    |-------17---------17-----------17-----------17-----------17-------17-|
    |----------20b22--------20b22--------20b22-------------------20b22----|
    |-19b21-----------------------------------------19b21-----------------|
    |---------------------------------------------------------------------|
    |---------------------------------------------------------------------|
    |---------------------------------------------------------------------|
    
      A5                      C5    D5        G5
            Gtrs I, III, IV   Gtrs I, IV
             PM------------|
       E     S  S  S  S  S  S  E     S  S +S   S  E
    |--------------------------------------------------|
    |--------------------------------------------------|
    |--------------------------5-----7--7-(7)--0--0----|
    |--5-----------------------5-----7--7-(7)--0--0----|
    |--0-----0--0--0--0--0--0--------------------------|
    |--------------------------------------------------|
    |
    |  S  S  S  S  S  S  S  S  S  S  S  S  S   S  S  S
    |-20p17----17-20p17--------------------------------|
    |-------20----------20-17-17-17-20p17-19-----------|
    |-------------------------------------19--17----17-|
    |--------------------------------------------19----|
    |--------------------------------------------------|
    |--------------------------------------------------|
    
      Am7                     N.C.
            Gtrs I, III, IV   Gtrs I, IV
             PM------------|
       E     S  S  S  S  S  S  S S  S S +S  S E
    |-------------------------------------------|
    |-------------------------------------------|
    |--5----------------------------------------|
    |--5-----------------------7p5----5-(5)-----|
    |--------0--0--0--0--0--0-------7-------6h7-|
    |-------------------------------------------|
    |
    |       Gtrs III, V                 Gtr V
    |  ~~    PM--------------------|
    |  S  S  S  S  S  S  S  S  E    E    Q
    |-------------------------------------------|
    |-------------------------------------------|
    |-19-17-------------------------------------|
    |-------19-17----17-19-17-------------------|
    |-------------19----------19---17---15------|
    |-------------------------------------------|
    
     3rd Verse
                 D.S. al Coda
                             &
      D5              G5         A5     C5 G5     A5   G5
                              7/8                4/4
      Gtrs I, IV             Gtrs I, IV
       E     Q.       E Q.     S S E Q  E. S +E   H    H
       |     |        | |      | |   |  |  |  |   |    |
       /     /        / /      o /   /  /  /  /   /    /
       S  E.     +Q   H        W                  W
    |------------------------|------------------|-----------||
    |------------------------|------------------|-----------||
    |------------------------|------------------|-----------||
    |------------------------|------------------|-----------||
    |-15h17-----(17)---------|------------------|-----------||
    |------------------------|------------------|-----------||
    
        N.C.(A5)            C5   N.C.(A5)            D5
       4/4
        Gtrs I, IV
        E S S +S  S E S E S Q    E S S +S  S E S E S Q
    ||-------------------------|------------------------|
    ||o------------------------|------------------------|
    ||----------------------5--|---------------------7--|
    ||--7---7-(7)---7---7---5--|-7---7-(7)---7---7---7--|
    ||o-0---0-(0)---0---0------|-0---0-(0)---0---0------|
    ||-------------------------|------------------------|
    
      N.C.(A5)            C5   N.C.
                              7/8
      E S S +S  S E S E S Q    E. S +E  E E E E  4x
    |------------------------|-------------------||
    |------------------------|------------------o||
    |---------------------5--|-------------------||
    |-7---7-(7)---7---7---5--|-7--5-(5)----------||
    |-0---0-(0)---0---0------|----------7-6-5---o||
    |------------------------|----------------8--||
    
     Guitar Solo
      B5                                   D5
     4/4
      Gtrs I, IV
      E       S S +S    S  E   S    E    S Q
      |         |  |       |        |      |
      /         /  /       /        /      /
      Gtr V
      S    S  S S  S    S  S S S    S  S S S    S  S S
    |------7------------7------------------------------|
    |--------10p7---------10p7------7-10p7------7-10p7-|
    |-9b11---------9b11--------9b11--------9b11--------|
    |--------------------------------------------------|
    |--------------------------------------------------|
    |--------------------------------------------------|
    
      B5                                   E5
      E       S S +S    S  E   S    E    S Q
      |         |  |       |        |      |
      /         /  /       /        /      /
      S    S  S S  S    S  S S S    S  S S S    S  S S
    |--------------------------------------------------|
    |------7-10p7-------7-10p7------7-10p7------7-10p7-|
    |-9b11---------9b11--------9b11--------9b11--------|
    |--------------------------------------------------|
    |--------------------------------------------------|
    |--------------------------------------------------|
    
      B5                          D5
                                            7/8
      Gtrs I, IV
       E    S S +S S E    S E   S Q           E.    S +E   E        E E E
       |      |  |   |      |     |           |     |  |   |        | | |
       /      /  /   /      /     /           o     o  /   o        o o o
      Gtr V
       S S  S S  S S S S  S S S S S S  S S    Q.          +S   +S   E E E
    |-10p7-10p7----7-9p7-10p7-9p7---7-10p7-|-----------------------/7-7-7-|
    |------------9----------------9--------|-10b12=======(10)r(10)--------|
    |--------------------------------------|------------------------------|
    |--------------------------------------|------------------------------|
    |--------------------------------------|------------------------------|
    |--------------------------------------|------------------------------|
    
      B5                                  D5        B5                       E5
     4/4
      E    S  S +S    S   E      S E    S Q         E   S S +S S E   S E   S Q
      |       |  |        |        |      |         |     |  |   |     |     |
      /       /  /        /        /      /         /     /  /   /     /     /
                 |------5------|
      S  S S  S  S  S   S    S S S S  S S S S S S   S S S S  S S S S S S E   E E
    |-7-10p7-----7-10p==7-------------------------|-------------------------------|
    |--------10-------------10-7-7-7-10-7---------|-------------------------------|
    |-------------------------------------9-7-7-7-|-9p7---------------------------|
    |---------------------------------------------|-----9-7----7-9-7--------------|
    |---------------------------------------------|----------9-------9-7-5---5----|
    |---------------------------------------------|----------------------------7--|
    
      B5                       D5
                                        7/8
      E   S S +S S E   S E   S Q         E.   S     +E   E    E       E     E
      |     |  |   |     |     |         |    |      |   |    |       |     |
      /     /  /   /     /     /         o    o      /   o    o       o     o
      S S E    S S S S S S S S S S S S   E.   S     +E   E    E       E     E
    |----------------------------------|-----------------------------------14-|
    |------------------------------7---|----------------------------/17b19----|
    |--------------7-7-9p7-7-7-7-9---9-|-9b11-9b11==(9)r-9b11-9b12-----------|
    |----------7s9---------------------|--------------------------------------|
    
    Узнай ВСЕ о своем друге в ВК или FB
    |-----5----------------------------|--------------------------------------| |-5h7------------------------------|--------------------------------------| B5 D5 4/4 E S S +S S E S E S Q | | | | | | / / / / / / +S E S S S S S S S S S S S S S |-(14)---------14-------14-------14-17-14----14-17p14-19p14-| |------17b19------17b19----17b19----------17----------------| |-----------------------------------------------------------| |-----------------------------------------------------------| |-----------------------------------------------------------| |-----------------------------------------------------------| B5 E5 E S S +S S E S E S Q | | | | | | / / / / / / S S S S S S S S S S S S S S S S |-17p14----14-17p14-19p14-17p14----14-17p14-19p14-| |-------17----------------------17----------------| |-------------------------------------------------| |-------------------------------------------------| |-------------------------------------------------| |-------------------------------------------------| B5 D5 E S S +S S E S E S Q | | | | | | / / / / / / S S S S S S S S S S S S S S S S |-17-14----14-17s14-------------------------------| |-------17----------17----------17----------------| |----------------------18s16-18----18-16-14-14-14-| |-------------------------------------------------| |-------------------------------------------------| |-------------------------------------------------| 7/8 E. S +E E E E E | | | | | | | o o / o o o o ~~~~~ E. S +E E E E S S |--------------------------------------------| |-17----17-----(17)--17----17----17----17-14-| |-16b18-16b18==(16)r-16b18-16b18-16b18-16-14-| |--------------------------------------------| |--------------------------------------------| |--------------------------------------------| B5 D5 4/4 E S S +S S E S E S Q | | | | | | / / / / / / |----3-----| Q +E. S Q S +S S S S |-22b24======(22)r====22-22b23-----21b22r(21)p19----19-| |------------------------------------------------22----| |------------------------------------------------------| |------------------------------------------------------| |------------------------------------------------------| |------------------------------------------------------| B5 E5 E S S +S S E S E S Q | | | | | | / / / / / / S S S S S S S S S S S S S S S S |-22p19----------------------------------------------| |-------22p19-------19-22p19-------------------------| |-------------21b23----------21-19----19-21p19-------| |----------------------------------21----------21-19-| |----------------------------------------------------| |----------------------------------------------------| B5 D5 E S S +S S E S E S Q | | | | | | / / / / / / Gtrs III, V Gtr V PM---------------------| |--3--| S S S S S S S S S S S S E E E |----------------------------------------------| |----------------------------------------------| |----------------------------------------------| |----19-21p19----------------------------19-21-| |-21----------21-19-17-17-19-17-16-17s21-------| |----------------------------------------------| 7/8 E. S +E E E E E | | | | | | | o o / o o o o ~~~~~ |--3--| a E. S +E E +E E S S S |------------------------------------19---14p12-| |-----------------------------------------------| |-19h21b23-21b23==(21)r-21b24==(21)r------------| |-----------------------------------------------| |-----------------------------------------------| |-----------------------------------------------| B5 D5 4/4 E S S +S S E S E S Q | | | | | | / / / / / / T T T T T T T T |-3--| |---3---| |---3---| |--3--| |---3---| |---3---| |--3--| |-3--| S S S S S S S S S S S S S S S S S S S S S S S S |-17p14---17p14p==12-17p14p==12-17p14p12-17p14p==12-17p14p==12-17p14p12---------| |-----------------------------------------------------------------------17p14---| |-------------------------------------------------------------------------------| |-------------------------------------------------------------------------------| |-------------------------------------------------------------------------------| |-------------------------------------------------------------------------------| B5 E5 E S S +S S E S E S Q | | | | | | / / / / / / |--3--| |---3---| |---3---| |--3--| S S S S S S S S S S S S S S S S S S S S |-17p14-14-----17p14p==12------17p14p==12----0-17p14p12----0--| |----------x-0------------17p0------------17------------17----| |-------------------------------------------------------------| |-------------------------------------------------------------| |-------------------------------------------------------------| |-------------------------------------------------------------| B5 D5 E S S +S S E S E S Q | | | | | | / / / / / / |--3--| |---3---| |3-| S S S S S S S S S S S E S S S S S S |-17p14p12----0-17p14p==12----0-17p14------14-17p14-------| |----------17--------------17-----------17----------17-14-| |---------------------------------------------------------| |---------------------------------------------------------| |---------------------------------------------------------| |---------------------------------------------------------| 7/8 E. S +E E E E E | | | | | | | o o / o o o o ~~~~~~~~~~~~~~ S S E E E Q +S +S |------------------------------------------------| |-------14-17---17b19-17b19-17b19====(17)r(17)--| |-16b18------------------------------------------| |------------------------------------------------| |------------------------------------------------| |------------------------------------------------| B5 D5 4/4 E S S +S S E S E S Q | | | | | | / / / / / / E E +Q S E. +E S S |---------------------------------------| |---9b10====(9)r------------------------| |---9b11====(9)r-----7----------7-9b12==| |----------------------9----(9)---------| |---------------------------------------| |---------------------------------------| B5 E5 E S S +S S E S E S Q | | | | | | / / / / / / ~ |-3-| +S S S S S S S S S S S S S E E |---------------------------------------| |------7-10p7----7-10p7-----------------| |-(9)r---------9--------9-7-9p7---7-9/--| |-------------------------------9-------| |---------------------------------------| |---------------------------------------| B5 D5 E S S +S S E S E S Q | | | | | | / / / / / / |--3--| S S S S S T T T S S S S S S S S S S |-------14-------14h17p14----------------------------------| |-12s14----17p14----------17-14-------14-17p14-------------| |-------------------------------16b18----------16-14-14-14-| |----------------------------------------------------------| |----------------------------------------------------------| |----------------------------------------------------------| 7/8 E. S +E E E E E | | | | | | | o o / o o o o E. S +E E +E S +S E |-----------------------------------------------| |-----------------------------------------------| |-16b18-16b18==(16)r-16b18==(16)r-16b18r(16)-14-| |-----------------------------------------------| |-----------------------------------------------| |-----------------------------------------------| B5 D5 4/4 E S S +S S E S E S Q | | | | | | / / / / / / ~~~~~ |----3-----| Q +E. +S Q S +S S S S |-22b24======(22)r====(22)-22b23-----22b23r(22)p19-19-19-| |--------------------------------------------------------| |--------------------------------------------------------| |--------------------------------------------------------| |--------------------------------------------------------| |--------------------------------------------------------| B5 E5 E S S +S S E S E S Q | | | | | | / / / / / / S S S S S S S S S S S S S S S S |-22p19----------------------------------------------| |-------22p19-------19-22p19-------------------------| |-------------21b22----------21-19-19-19-21p19-------| |----------------------------------------------21-19-| |----------------------------------------------------| |----------------------------------------------------| B5 D5 E S S +S S E S E S Q | | | | | | / / / / / / Gtrs III, V Gtr V PM------------------| S S S S S S S S S S S S S S S S |-------------------------------------------------| |-------------------------------------------------| |-------------------------------------------------| |----19-21p19-------------------------------19-21-| |-21----------21-19-17-17-19-17-16-17-19s21-------| |-------------------------------------------------| 7/8 E. S +E E E E E | | | | | | | o o / o o o o S S S S S S S S S S S S S S |---------------------------------------------| |---------------------------------------------| |-19--19-21p19-19-19-21p19-21-19----19s20-----| |--------------------------------21-18s19-21--| |---------------------------------------------| |---------------------------------------------| B5 D5 4/4 E S S +S S E S E S Q | | | | | | / / / / / / S S S S S S S S S S S S S S S S |--------------------------------------------------| |-15-15-12----/13-16-13-14-17p14----15-18p15----16-| |----------13--------------------15----------16----| |--------------------------------------------------| |--------------------------------------------------| |--------------------------------------------------| B5 E5 E S S +S S E S E S Q | | | | | | / / / / / / ~~ S S S S S S S S S S S S E S S |-------------------------------------------13-| |-19p16----17-20p17----18-21p18----18-21-15----| |-------17----------18----------18-------------| |----------------------------------------------| |----------------------------------------------| |----------------------------------------------| B5 D5 E S S +S S E S E S Q | | | | | | / / / / / / S S S S S S S S S S S S S S S S |-17p14----15-19p16----16-20p17----18-21p18----19-| |-------16----------18----------20----------20----| |-------------------------------------------------| |-------------------------------------------------| |-------------------------------------------------| |-------------------------------------------------| 7/8 E. S +E E E E E | | | | | | | o o / o o o o E. S +E E +Q +E |-22b24-22b24==(22)r-22b24==(22)r==(22)-| |----------------------------------------| |----------------------------------------| |----------------------------------------| |----------------------------------------| |----------------------------------------| A5V C5 4/4 E S S +S S E S E S Q | | | | | | / / / / / / |--3--| S S S S S S S S S S S S S S S S S |--------------------------------------------------| |---17-17-20p17-19p17-x-17-22p17-20p17----17s16-17-| |--------------------------------------20----------| |--------------------------------------------------| |--------------------------------------------------| |--------------------------------------------------| A5V D5 E S S +S S E S E S Q | | | | | | / / / / / / S S S S S S S S S S S S S S S S |--------------------------------------------------| |-22p17-20p17-19p17----17-22p17-20p17-19p17-17-17--| |-------------------20-----------------------------| |--------------------------------------------------| |--------------------------------------------------| |--------------------------------------------------| A5V C5 7/8 E S S +S S E S E S Q E. S +E E E E E | | | | | | | | | | | | | / / / / / / o o / o o o o ~~~ S S S S S S S S S S S S S S S S H Q. |-------------------------------------------------|-20b22--------20------| |-22p17-20p17-19p17----17-22p17-20p17-19p17-17-17-|----------------------| |-------------------20----------------------------|----------------------| |-------------------------------------------------|----------------------| |-------------------------------------------------|----------------------| |-------------------------------------------------|----------------------| A5V C5 4/4 E S S +S S E S E S Q | | | | | | / / / / / / S S S S S S S S S S S S S S S S |-20p17-17-17-20p17-------------------------------| |-------------------20-17-17-17-20p17-------------| |-------------------------------------19-17----19-| |-------------------------------------------19----| |-------------------------------------------------| |-------------------------------------------------| A5V D5 E S S +S S E S E S Q | | | | | | / / / / / / |---3---| S S S S S S S S S S S S S S S E |------------------------------------------------------| |------------------------------------------------------| |-17-17-17h19p==17-------------------------------------| |------------------19-17----17-19p17-------------------| |------------------------19----------19-17-15----------| |---------------------------------------------17-17b18-| A5V C5 E S S +S S E S E S Q | | | | | | / / / / / / S S S S E S S S S S S S S S S |------------------------------------------------| |---------------------------------------------17-| |---------------------------------------17-19----| |------------------17-17-19p17----17-19----------| |-------15-17s19---------------19----------------| |-15-17------------------------------------------| 7/8 E. S +E E E E E | | | | | | | o o / o o o o TP |--3---| |------------------6:5-------------------| S S S S S S S S S S S S S S S S S |-----------------------20p==17-------------------------------| |-20--17s16-20p17-20p17---------20---17-17-17---20-17s==16-17-| |-------------------------------------------------------------| |-------------------------------------------------------------| |-------------------------------------------------------------| |-------------------------------------------------------------| E. S +E E E E E | | | | | | | o o / o o o o |-------------8:7--------------| |-------------8:7-------------| S S S S S S S S S S S S S S S S |--------------------------------------------------------------------| |-20p17---------------------------------------------------17---20p17-| |-------19b21-17---17----17-19---17----17---19-17---19b21------------| |-----------------------------------19-------------------------------| |--------------------------------------------------------------------| |--------------------------------------------------------------------| E. S +E E E E E | | | | | | | o o / o o o o TP |------------8:7------------| |-----------8:7------------| S S S S S S S S S S S S S S S S |-20p17----------------------------------------------------------| |-------20-17---17----17-20p==17---------------------------------| |--------------------------------19-17---17-17---19p17---17-17---| |----------------------------------------------------------------| |----------------------------------------------------------------| |----------------------------------------------------------------| H.=H A5V 4/4 Gtrs I, IV, V TP TP Q Q Q Q Q Q Q Q |-----------------------------|-----------------------------| |-20-----20-----20-----20-----|-20-----20-------------------| |-19b21--19b21--19b21--19b21--|-19b21--19b21--19b21--19b21--| |--7--------------------------|-(7)-------------------------| |--7--------------------------|-(7)-------------------------| |--5--------------------------|-(5)-------------------------| W +W W W Q q H |--------------:------------:--------------------*| |-20-----------:------------:-20-----20----------*| |-19b21--------:------------:-19b21--19b21-------*| |-(7)----------:-(7)--------:--7------7----------*| |-(7)----------:-(7)--------:--7------7----------*| |-(5)----------:-(5)--------:--5------5----------*| +W +W Q Q H Duration Legend --------------- W - whole; H - half; Q - quarter; E - 8th; S - 16th; T - 32nd; X - 64th; a - acciaccatura + - note tied to previous; . - note dotted; .. - note double dotted Uncapitalized letters represent notes that are staccato (1/2 duration) Irregular groupings are notated above the duration line Duration letters will always appear directly above the note/fret number it represents the duration for. Duration letters with no fret number below them represent rests. Multi- bar rests are notated in the form Wxn, where n is the number of bars to rest for. Low melody durations appear below the staff Tablature Legend ---------------- h - hammer-on p - pull-off b - bend pb - pre-bend r - bend release (if no number after the r, then release immediately) / - slide into or out of (from/to "nowhere") s - legato slide S - shift slide - natural harmonic [n] - artificial harmonic n(n) - tapped harmonic ~ - vibrato tr - trill T - tap TP - trem. picking PM - palm muting n/ - tremolo bar dip; n = amount to dip n - tremolo bar down n/ - tremolo bar up /n - tremolo bar inverted dip = - hold bend; also acts as connecting device for hammers/pulls <> - volume swell (louder/softer) x - on rhythm slash represents muted slash o - on rhythm slash represents single note slash Misc Legend ----------- | - bar || - double bar ||o - repeat start o|| - repeat end *| - double bar (ending) : - bar (freetime) $ - Segno & - Coda Tempo markers - = BPM(8/16=s8/s16), where s8 = swing 8ths, s16 = swing 16ths *************************************************************************************** * Generated using Power Tab Editor by Brad Larsen - http://powertab.guitarnetwork.org * ***************************************************************************************

    http://www.powertabs.net
    поиск лекарств
    список лекарств






    О сайтеАккордыХит-парадПоискУроки ФорумыИщу песню
    ПрограммыСвежачок-сПодпискаСтатьи
    Яндекс.Метрика