Табулатура Metallica | Hero Of The Day  (2) гитара табулатуры уроки тексты песен Metallica текст lyrics песня аккорды песни ноты нота электрогитара струна  
   А Б В Г Д Е Ж З И К Л М Н О П Р С Т У Ф Х Ч Ш Ы Э Ю Я       Разные песни
1-9 A B C D E F G H I J K L M N O P Q R S T U V W Y Z      Все исполнители in english

    



группа Metallica, Табулатура песни Hero Of The Day (2)

Работа в Европе для граждан РФ, Украины, СНГ

  • минимальная зарплата $500.
  • виза и контракт на полгода, возможно продление
  • проживание оплачивает работодатель
  • нужен только загранпаспорт
  • оформление 190 €
  • данное предложение - отличная возможность эмигрировать в Европу и закрепиться здесь навсегда.

  • Мы свяжемся с Вами по WhatsApp или Viber и ответим на любые вопросы.
    на нашем сайте можно почитать подробнее »

    Группа: Metallica - другие аккорды (225),   о группе (32 статей),   диски (11),   фотографии (49)
    Табулатура песни: Hero Of The Day (2)
    Просмотров: 2600
    Прислал: DiaSpar (diaspar@i.com.ua)




        
    #----------------------------------PLEASE NOTE---------------------------------#
    #This file is the author's own work and represents their interpretation of the #
    #song. You may only use this file for private study, scholarship, or research. #
    #------------------------------------------------------------------------------##
                                     HERO OF THE DAY
                                As recorded by Metallica
                               (From the 1996 Album LOAD)
    Words and Music by J. Hetfield, L. Ulrich & K. Hammet
              A5
          x 0 2 2 x x
    Gtr I (D# G# C# F# A# D#) - 'Clean'
    Gtr II (D# G# C# F# A# D#) - 'Acoustic'
    Gtr III (D# G# C# F# A# D#) - 'Rythm I'
    Gtr IV (D# G# C# F# A# D#) - 'Rythm II'
    Gtr V (D# G# C# F# A# D#) - 'Solo Guitar'
    Gtr VI (D# G# C# F# A# D#) - 'Outro Picking'
     Intro
      Q=112
      N.C.      A5     A5/B     A5/C#  A5/D
     2/4       4/4
      Gtr I
      E E E E   E E Q  E E Q    E E Q  E E Q
    |---------|---------------|---------------|
    |---------|---------------|---------------|
    |---------|-----2------2--|-----2------2--|
    |---------|---2------2----|---2------2----|
    |-----0---|-0------2------|-4------5------|
    |---2---2-|---------------|---------------|
    
      E
      E E E E +E  E E E   +E  E E E +E   E E E
    |-------------------|----------------------|
    |-------------------|----------------------|
    |-----4---------4---|-------4--------------|
    |---6---6-(6)-----6-|-(6)-----6-(6)-------|
    |-7-----------7-----|-----7------------0---|
    |-------------------|----------------2---2-|
    
      A5     A5/B     A5/C#  A5/D     E
                                                                    |-3-|
      E E Q  E E Q    E E Q  E E Q    E E E E +E  E E E   +E  E E E S S S E E E
    |---------------|---------------|-------------------|------------------------||
    |---------------|---------------|-------------------|------------------------||
    |-----2------2--|-----2------2--|-4-----4-(4)-----4-|-(4)-----4-4h6p4--------||
    |---2------2----|---2------2----|-4h6---------6-----|-----6-----------6-6h7--||
    |-0------2------|-4------5------|-7---7---------7---|-------7----------------||
    |---------------|---------------|-------------------|------------------------||
    
     1st Verse
      A5      A5/B      A5/C#   A5/D
      Gtr I
      E E  Q  E E  Q    E E  Q  E E  Q
    |-----------------|-----------------|
    |-----------------|-----------------|
    |------2-------2--|------2-------2--|
    |---2-------2-----|---2-------2-----|
    |-0-------2-------|-4-------5-------|
    |-----------------|-----------------|
    |
    | Gtr II
    | E Q.    E Q.      E Q.    E Q.
    |-----------------|-----------------|
    |-----------------|-----------------|
    |---2-------4-----|---6-------7-----|
    |-----------------|-----------------|
    |-0-------0-------|-0-------0-------|
    |-----------------|-----------------|
    
      E
      E E  E E +E  E E E   +E  E  E E +E   E E E
    |--------------------|------------------------|
    |--------------------|------------------------|
    |------4---------4---|--------4---------------|
    |---6----6-(6)-----6-|-(6)------6-(6)--------|
    |-7------------7-----|-----7-------------0----|
    |--------------------|-----------------2---2--|
    |
    | E Q.     +H           E  Q.     +E   E E E
    |--------------------|------------------------|
    |--------------------|------------------------|
    |--------------------|------------------------|
    |---2------(2)-------|-----2------(2)---------|
    |--------------------|-------------------0----|
    |-0------------------|--0--------------2---2--|
    
      A5      A5/B      A5/C#   A5/D
      E E  Q  E E  Q    E E  Q  E E  Q
    |-----------------|-----------------|
    |-----------------|-----------------|
    |------2-------2--|------2-------2--|
    |---2-------2-----|---2-------2-----|
    |-0-------2-------|-4-------5-------|
    |-----------------|-----------------|
    |
    | E Q.    E Q.      E Q.    E Q.
    |-----------------|-----------------|
    |-----------------|-----------------|
    |---2-------4-----|---6-------7-----|
    |-----------------|-----------------|
    |-0-------0-------|-0-------0-------|
    |-----------------|-----------------|
    
      E
                               Gtr III
      E E  E E +E  E E E   +E  E  E E  E  E Q
    |--------------------|------------------------|
    |--------------------|------------------------|
    |-4------4-(4)-----4-|-(4)----4h6--6p=4-------|
    |-4h6----------6-----|--------6----6----6----|
    |-7----7---------7---|-----7------------------|
    |--------------------|------------------------|
    |
    | E Q.     +H           E  Q.     +E  E E  E
    |--------------------|------------------------|
    |--------------------|------------------------|
    |--------------------|------------------------|
    |---2------(2)-------|-----2------(2)---------|
    |--------------------|------------------0-----|
    |-0------------------|--0-------------2----2--|
    
        A5      A5/B      A5/C#   A5/D      E
        E E  Q  E E  Q    E E  Q  E E  Q    E E E E  E  E E E
    ||------------------|-----------------|-------------------|
    ||o-----------------|-----------------|-------------------|
    ||-------2-------2--|------2-------2--|-------------------|
    ||----2-------2-----|---2-------2-----|-4h6-6-6-----6---4-|
    ||o-0-------2-------|-4-------5-------|-7---7-7-----7---7-|
    ||------------------|-----------------|-0---0-0-----0---0-|
    |
    |   E Q.    E Q.      E Q.    E Q.      E E E E +E  Q   E
    ||------------------|-----------------|-------------------|
    ||o-----------------|-----------------|-------------------|
    ||----2-------4-----|---6-------7-----|-------------------|
    ||------------------|-----------------|-7h9-9-9-(9)-9---9-|
    ||o-0-------0-------|-0-------0-------|-7---7-7-(7)-7---7-|
    ||------------------|-----------------|-0---0-0-(0)-0---0-|
    
     1.                    2.
      E E E E +E  E E E     E E E E  E  E   E E
    |--------------------||----------------------||
    |-------------------o||----------------------||
    |--------------------||-----4-4--4--6b7r6-4--||
    |-4h6-6-6-(6)--------||-4h6-6-6--6--6b7r6-4--||
    |-7---7-7-(7)---0---o||-7--------------------||
    |-0---0-0-(0)-2---2--||-0--------------------||
    |
    |                                   Gtrs II, IV
    | E E E E +E  E E E     E E E E +E  E   E E
    |--------------------||----------------------||
    |-------------------o||----------------------||
    |--------------------||----------------------||
    |-7h9-9-9-(9)--------||-7h9-9-9-(9)----------||
    |-7-7-7-7-(7)---0---o||-7-7-7-7-(7)-----0----||
    |-0-0-0-0-(0)-2---2--||-0-0-0-0-(0)-2-----2--||
    
        A5    A5/B    A5/C# A5/D    E
        Gtr II
        W             W             W                    W
        |
        o
        Gtr III
                                                                            ~~
        Q  Q  Q  Q    Q  Q  Q  Q    E E E E +E  E E E    E  E  E  E  E   E  Q
    ||--------------|-------------|-------------------|--------------------------||
    ||o-------------|-------------|-------------------|-------------------------o||
    ||-----2-----2--|----2-----2--|-7s9-9-9-(9)-9-9-9-|-11s13-13-13-13s=14-14----||
    ||-----2-----2--|----2-----2--|-------------------|--------------------------||
    ||o-0-----2-----|-4-----5-----|-5s7-7-7-(7)-7-7-7-|--9s11-11-11-11s=12-12---o||
    ||--------------|-------------|-------------------|--------------------------||
    |
    |   Gtr IV
    |   Q  Q  Q  Q    Q  Q  Q  Q    E E E E  E  E E E    E  E  E  E +E   E  E E
    ||--------------|-------------|-------------------|--------------------------||
    ||o-------------|-------------|-------------------|-------------------------o||
    ||-----2-----2--|----2-----2--|-------------------|--------------------------||
    ||-----2-----2--|----2-----2--|-4h6-6-6-----6---4-|--4h=6--6--6-(6)----------||
    ||o-0-----2-----|-4-----5-----|-7---7-7-----7---7-|--7-----7--7-(7)-----0---o||
    ||--------------|-------------|-0---0-0-----0---0-|--0-----0--0-(0)--2----2--||
    
      A5     A5/B     A5 (C#) A5/D     E
      Gtr III
      W               +W               W                    W
      |                |
      /                /
      Gtr I
      E E Q  E E Q     E E Q  E E Q    E E E E +E  E E E   +E  E E E +E   E E E
    |---------------|----------------|-------------------|-----------------------|
    |---------------|----------------|-------------------|-----------------------|
    |-----2------2--|------2------2--|-----4---------4---|-------4---------------|
    |---2------2----|----2------2----|---6---6-(6)-----6-|-(6)-----6-(6)--------|
    |-0------2------|--4------5------|-7-----------7-----|-----7------------0----|
    |---------------|----------------|-------------------|----------------2---2--|
    
      A5     A5/B     A5/C#  A5/D     E
      E E Q  E E Q    E E Q  E E Q    E E E E +E  E E E   +E  E E E +E  E E E
    |---------------|---------------|-------------------|----------------------||
    |---------------|---------------|-------------------|----------------------||
    |-----2------2--|-----2------2--|-----4---------4---|-------4---------4h6--||
    |---2------2----|---2------2----|---6---6-(6)-----6-|-(6)-----6-(6)---6----||
    |-0------2------|-4------5------|-7-----------7-----|-----7---------7------||
    |---------------|---------------|-------------------|----------------------||
    
     2nd Verse
      A5      A5/B     A5/C#    A5/D       E
      Gtr I
      E E Q   E E Q    E E Q     E E  Q       E  E E E +E  E E E
    |----------------|-------------------|-----------------------|
    |----------------|-------------------|-----------------------|
    |-----2-------2--|-----2----------2--|---------4---------4---|
    |---2-------2----|---2---------2-----|-------6---6-(6)-----6-|
    |-0-------2------|-4---------5-------|----7------------7-----|
    |----------------|-------------------|-----------------------|
    |
    | Gtr II
    | E E E E H        E E E  E  Q    Q     a Q.     E +E  Q   E
    |----------------|-------------------|-----------------------|
    |----------------|-------------------|-----------------------|
    |-x-x-6s7-7------|-x-9-9s11-11---11--|-11s9------9-(9)-9---9-|
    |----------------|-------------------|-----------------------|
    |-x-x-4s5-5------|-x-7-7s=9--9----9--|--9s7------7-(7)-7---7-|
    |----------------|-------------------|-----------------------|
    
                             A5      A5/B       A5/C#      A5/D
      Gtr I
      E E  E  E +E   E E E   E E Q   E  E Q      E  E Q     E E  Q
    |----------------------|------------------|---------------------|
    |----------------------|------------------|---------------------|
    |------4---------------|-----2--------2---|-------2----------2--|
    |-6-------6-(6)-------|---2--------2-----|-----2---------2-----|
    |---7--------------0---|-0-------2--------|--4----------5-------|
    |----------------2---2-|------------------|---------------------|
    |
    | Gtr II
    | E E +E  E +E   E E E   E E E E Q.     E    E  E E  E  Q    Q
    |----------------------|------------------|---------------------|
    |----------------------|------------------|---------------------|
    |----------------------|-x-x-6s7-7------7-|--x--9-9s11-11---11--|
    |-x-9-(9)-9-(9)--6-6s7-|------------------|---------------------|
    |----------------------|-x-x-4s5-5------5-|--x--7-7s=9--9----9--|
    |-x-7-(7)-7-(7)--4-4s5-|------------------|---------------------|
    |
    | Gtr IV
    |                  ~~
    | E E  E  E  E   E Q     W                  +W
    |-5-7--5--4--5---4-----|------------------|---------------------|
    |------------------5---|-5----------------|-(5)-----------------|
    |----------------------|------------------|---------------------|
    |----------------------|------------------|---------------------|
    |----------------------|------------------|---------------------|
    |----------------------|------------------|---------------------|
    
      E
         E E E E +E  E E E   E E E E E E Q
    |----------------------|-------------------|
    |----------------------|-------------------|
    |--------4---------4---|-4---4h6-6p4-------|
    |------6---6-(6)-----6-|-----6---6---6----|
    |----7-----------7-----|---7---------------|
    |----------------------|-------------------|
    |
    |                        Gtr III
    |  a Q   Q    H          H       E E E  E
    |----------------------|-------------------|
    |----------------------|-------------------|
    |-11s9-----------------|-------------------|
    |----------------------|-------------------|
    |--9s7-----------------|-------------0-----|
    |----------------------|-----------2----2--|
    |
    |    W                   E E E E H
    |----------------------|-5-7-5-4-5---------|
    |----------------------|-------------------|
    |----------------------|-------------------|
    |----------------------|-------------------|
    |----------------------|-------------------|
    |----------------------|-------------------|
    
        A5     A5/B     A5/C#  A5/D     E
        Gtrs III, IV
        E E Q  E E Q    E E Q  E E Q    E E E E E E E E   E E E E +E  E E E
    ||----------------|---------------|-----------------|--------------------||
    ||o---------------|---------------|-----------------|-------------------o||
    ||------2------2--|-----2------2--|-----------------|--------------------||
    ||----2------2----|---2------2----|-4h6-6-6---6---4-|-4h6-6-6-(6)--------||
    ||o-0------2------|-4------5------|-7---7-7---7---7-|-7---7-7-(7)---0---o||
    ||----------------|---------------|-0---0-0---0---0-|-0---0-0-(0)-2---2--||
    
        A5    A5/B    A5/C# A5/D    E
        Gtr III
        Q  Q  Q  Q    Q  Q  Q  Q    E E E E +E  E E E
    ||--------------|-------------|-------------------|
    ||o-------------|-------------|-------------------|
    ||-----2-----2--|----2-----2--|-7s9-9-9-(9)-9-9-9-|
    ||-----2-----2--|----2-----2--|-------------------|
    ||o-0-----2-----|-4-----5-----|-5s7-7-7-(7)-7-7-7-|
    ||--------------|-------------|-------------------|
    |
    |   Gtr IV
    |   Q  Q  Q  Q    Q  Q  Q  Q    E E E E  E  E E E
    ||--------------|-------------|-------------------|
    ||o-------------|-------------|-------------------|
    ||-----2-----2--|----2-----2--|-------------------|
    ||-----2-----2--|----2-----2--|-4h6-6-6-----6---4-|
    ||o-0-----2-----|-4-----5-----|-7---7-7-----7---7-|
    ||--------------|-------------|-0---0-0-----0---0-|
    
     1.                          2.
                          ~~
       E  E  E  E  E   E  Q        E  E  E  E  E  S S  Q
    |--------------------------||--------------------------||
    |-------------------------o||--------------------------||
    |-11s13-13-13-13s=14-14----||-11s13-13-13-13--x-x------||
    |--------------------------||--------------------------||
    |--9s11-11-11-11s=12-12---o||--9s11-11-11-11--x-x------||
    |--------------------------||---------------------17--||
    |
    |  E  E  E  E +E   E  E E      E  E  E  E +H
    |--------------------------||--------------------------||
    |-------------------------o||--------------------------||
    |--------------------------||--------------------------||
    |--4h=6--6--6-(6)----------||--4h=6--6--6-(6)----------||
    |--7-----7--7-(7)-----0---o||--7-----7--7-(7)----------||
    |--0-----0--0-(0)--2----2--||--0-----0--0-(0)----------||
    
     Chorus
      F#5                         N.C.
      Gtrs III, IV
      E E E E E E E E   E E E E E S S E S S
    |-----------------|---------------------|
    |-----------------|---------------------|
    |-----------------|---------------------|
    |-4-4---4---4---4-|---4---4-------------|
    |-4-4---4---4---4-|---4---4---4-4-4-4-4-|
    |-2-2---2---2---2-|---2---2---0-2-3-0-2-|
    
        F#5                       N.C.
      E E E E E E E E   E E E E E S S E S S
    |-----------------|----------------------|
    |-----------------|----------------------|
    |-----------------|----------------------|
    |---4---4---4---4-|---4---4--------------|
    |-4-4---4---4---4-|---4---4---4-4-4-4-4--|
    |-3-2---2---2---2-|---2---2---0-2-3-0-2--|
    
                         1.,2.,3.                4.
          F#5                       N.C.            F#5     N.C.
        E E E E E E E E   E E E E E S S E S S  4x E E E E E E E E
    ||------------------|----------------------||-----------------||
    ||o-----------------|---------------------o||-----------------||
    ||------------------|----------------------||-----------------||
    ||----4---4---4---4-|---4---4--------------||---4---4---------||
    ||o-4-4---4---4---4-|---4---4---4-4-4-4-4-o||---4---4-----0---||
    ||--3-2---2---2---2-|---2---2---0-2-3-0-2--||---2---2---2---2-||
    
     Guitar Solo
      A5          A5/B            A5/C#          A5/D
      Gtr V
      E S S E S S +S  S E E S S   S S E S S  S S +S  S E E      E
    |---------------------5-----|------------------------5----/10-|
    |-7-5-5-7-5-7-(7)-7-5---7-7-|-7-7-5-7-7--5-7-(7)-7-5----------|
    |---------------------------|---------------------------------|
    |---------------------------|---------------------------------|
    |---------------------------|---------------------------------|
    |---------------------------|---------------------------------|
    |
    | Gtr III
    | E E   Q      E    E Q       E   E Q         E    E Q
    |---------------------------|---------------------------------|
    |---------------------------|---------------------------------|
    |-------2-------------2-----|-------2----------------2--------|
    |---2---------------2-------|-----2----------------2----------|
    |-0------------2------------|-4---------------5---------------|
    |---------------------------|---------------------------------|
    |
    | Gtr IV
    | H            H              E   E E    E    Q.        a   E
    |---------------------------|---------------------------------|
    |---------------------------|---------------------------------|
    |-6------------7------------|-----9-9s==11---11--------11s=13-|
    |---------------------------|---------------------------------|
    |-4------------5------------|-----7-7s===9----9---------9s=11-|
    |---------------------------|---------------------------------|
    
      E
       E  S  S  E S S E S S S E.      W
    |-10-10-10-10-9-9-9-9-9-9-7----|--7-------------------|
    |------------------------------|----------------------|
    |------------------------------|----------------------|
    |------------------------------|----------------------|
    |------------------------------|----------------------|
    |------------------------------|----------------------|
    |
    |  E  E     E E   E E   E    E    E  E E E +E  E E E
    |------------------------------|----------------------|
    |------------------------------|----------------------|
    |------------------------------|----------------------|
    |--4h=6-----6-6-----6--------4-|--4h=6-6-6-(6)--------|
    |--7--------7-7-----7--------7-|--7----7-7-(7)---0----|
    |--0--------0-0-----0--------0-|--0----0-0-(0)-2---2--|
    |
    |  W                             +W
    |------------------------------|----------------------|
    |------------------------------|----------------------|
    |--9---------------------------|-(9)------------------|
    |------------------------------|----------------------|
    |--7---------------------------|-(7)------------------|
    |------------------------------|----------------------|
    
      A5        A5/B            A5/C#          A5/D
      E E E S S +S  S E E S S   S S E S S  S S +S  S E E      E
    |-------------------5-----|------------------------5----/12-|
    |-7-5-7-5-7-(7)-7-5---7-7-|-7-7-5-7-7--5-7-(7)-7-5----------|
    |-------------------------|---------------------------------|
    |-------------------------|---------------------------------|
    |-------------------------|---------------------------------|
    |-------------------------|---------------------------------|
    |
    | E E Q      E    E Q       E   E Q         E    E Q
    |-------------------------|---------------------------------|
    |-------------------------|---------------------------------|
    |-----2-------------2-----|-------2----------------2--------|
    |---2-------------2-------|-----2----------------2----------|
    |-0----------2------------|-4---------------5---------------|
    |-------------------------|---------------------------------|
    |
    | H          H              E   E E    E    Q.        a   E
    |-------------------------|---------------------------------|
    |-------------------------|---------------------------------|
    |-6----------7------------|-----9-9s==11---11--------11s=13-|
    |-------------------------|---------------------------------|
    |-4----------5------------|-----7-7s===9----9---------9s=11-|
    |-------------------------|---------------------------------|
    
      E
                                                 TP     TP
       E  S  S  E  S  S  S  E.    S  E.      S   E.    +H           E  E
    |-12-12-12-12-10-10-10-12----12-14----|-14--16----(16)---------17-17--||
    |-------------------------------------|-------------------------------||
    |-------------------------------------|------------------------14-14--||
    |-------------------------------------|-------------------------------||
    |-------------------------------------|-------------------------------||
    
    Узнай ВСЕ о своем друге в ВК или FB
    |-------------------------------------|-------------------------------|| | | E E E E E E E E E E E E +E E E E |-------------------------------------|-------------------------------|| |-------------------------------------|-------------------------------|| |-------------------------------------|-------------------------------|| |--4h=6-----6--6-----------6--------4-|--4h=====6---6--6-(6)----------|| |--7--------7--7-----------7--------7-|--7----------7--7-(7)----0-----|| |--0--------0--0-----------0--------0-|--0----------0--0-(0)-2-----2--|| | | W +W |-------------------------------------|-------------------------------|| |-------------------------------------|-------------------------------|| |--9----------------------------------|-(9)---------------------------|| |-------------------------------------|-------------------------------|| |--7----------------------------------|-(7)---------------------------|| |-------------------------------------|-------------------------------|| 3rd Verse A5 A5/B A5/C# A5/D Gtr V E E E E E E E E E E E E E E E E |-17-17-17-17-17-17-17-17-|-17-17-17-17-17-17-17-17-| |-------------------------|-------------------------| |-14-14-14-14-14-14-14-14-|-14-14-14-14-14-14-14-14-| |-------------------------|-------------------------| |-------------------------|-------------------------| |-------------------------|-------------------------| | | Gtr III | Q Q Q Q Q Q Q Q |-------------------------|-------------------------| |-------------------------|-------------------------| |--------2-----------2----|--------2-----------2----| |--------2-----------2----|--------2-----------2----| |--0-----------2----------|--4-----------5----------| |-------------------------|-------------------------| | | Gtr VI | E E Q E E Q E E Q E E Q |-------------------------|-------------------------| |-------------------------|-------------------------| |--------2-----------2----|--------2-----------2----| |-----2-----------2-------|-----2-----------2-------| |--0-----------2----------|--4-----------5----------| |-------------------------|-------------------------| E E E E E E E E E E E E E E E E E |-17-17-17-17-17--17-17-17-|-17s16-16-16-16s=14-14s12--| |--------------------------|---------------------------| |-14-14-14-14-14--14-14-14-|-14s13-13-13-13s=11-11s=9--| |--------------------------|---------------------------| |--------------------------|---------------------------| |--------------------------|---------------------------| | | ~~~ | E E E E +E E E E E E E E E E Q |--------------------------|---------------------------| |--------------------------|---------------------------| |--7s=9--9--9-(9)--9--9--9-|-11s13-13-13-13s=14-14-----| |--------------------------|---------------------------| |--5s=7--7--7-(7)--7--7--7-|--9s11-11-11-11s=12-12-----| |--------------------------|---------------------------| | | E E E E E E E E E E E E +E E E E |--------------------------|---------------------------| |--------------------------|---------------------------| |--------------------------|---------------------------| |--4h=6--6--6------6-----4-|--4h=6--6--6-(6)-----------| |--7-----7--7------7-----7-|--7-----7--7-(7)-----0-----| |--0-----0--0------0-----0-|--0-----0--0-(0)--2-----2--| A5 A5/B A5/C# A5/D E E E E E E E E E E E E E E E E |-12-12-12-12-12-12-12-12-|-12-12-12-12-12-12-12-12-| |-------------------------|-------------------------| |--9--9--9--9--9--9--9--9-|--9--9--9--9--9--9--9--9-| |-------------------------|-------------------------| |-------------------------|-------------------------| |-------------------------|-------------------------| | | Q Q Q Q Q Q Q Q |-------------------------|-------------------------| |-------------------------|-------------------------| |--------2-----------2----|--------2-----------2----| |--------2-----------2----|--------2-----------2----| |--0-----------2----------|--4-----------5----------| |-------------------------|-------------------------| | | E E Q E E Q E E Q E E Q |-------------------------|-------------------------| |-------------------------|-------------------------| |--------2-----------2----|--------2-----------2----| |-----2-----------2-------|-----2-----------2-------| |--0-----------2----------|--4-----------5----------| |-------------------------|-------------------------| E E E E E E E S S E E E S S E Q E E |-12-12-12-12-12--12-12-12-12-|----22-22-22-22-21S=====14s=17-|| |-----------------------------|-------------------------------|| |--9--9--9--9--9---9--9--9--9-|----19-19-19-19-18S=====11s=14-|| |-----------------------------|-------------------------------|| |-----------------------------|-------------------------------|| |-----------------------------|-------------------------------|| | | E E E E +E E E E E E E E E S S Q |-----------------------------|-------------------------------|| |-----------------------------|-------------------------------|| |--7s=9--9--9-(9)--9--9-----9-|-11s13-13----13-13--x-x--------|| |-----------------------------|-------------------------------|| |--5s=7--7--7-(7)--7--7-----7-|--9s11-11----11-11--x-x--------|| |-----------------------------|------------------------17----|| | | E E E E E E E E E E E E +H |-----------------------------|-------------------------------|| |-----------------------------|-------------------------------|| |-----------------------------|-------------------------------|| |--4h=6--6--6------6--------4-|--4h=6--6-----6-(6)------------|| |--7-----7--7------7--------7-|--7-----7-----7-(7)------------|| |--0-----0--0------0--------0-|--0-----0-----0-(0)------------|| Chorus F#5 N.C. Gtrs III, IV E E E E E E E E E E E E E S S E S S |-----------------|---------------------| |-----------------|---------------------| |-----------------|---------------------| |-4-4---4---4---4-|---4---4-------------| |-4-4---4---4---4-|---4---4---4-4-4-4-4-| |-2-2---2---2---2-|---2---2---0-2-3-0-2-| F#5 N.C. E E E E E E E E E E E E E S S E S S 4x ||------------------|-----------------------|| ||o-----------------|----------------------o|| ||------------------|-----------------------|| ||----4---4---4---4-|---4---4---------------|| ||o-4-4---4---4---4-|---4---4---4-4-4-4-4--o|| ||--3-2---2---2---2-|---2---2---0-2-3-0-2---|| F#5 Gtrs III, IV E E E E E E E E E E E E E S S E S S |-------------------|-------------------------|| |-------------------|-------------------------|| |-------------------|-------------------------|| |---4---4-----4---4-|-----4---4---------------|| |-4-4---4-----4---4-|-----4---4-----4-4-4-4-4-|| |-3-2---2-----2---2-|-----2---2-----0-2-3-0-2-|| | | Gtr VI | E E E E +E E E E +E E E E +E E E E |-------------------|-------------------------|| |-------------------|-------------------------|| |-------------------|-------------------------|| |-----4---------4---|-------4-----------4-----|| |---4---4-(4)-----4-|-(4)-----4-(4)-------4---|| |-2-----------2-----|-----2---------2---------|| Outro F#5 F#5/G# Gtrs III, IV E E E E E E E E E E E E E S S E S S |-------------------|-----------------------| |-------------------|-----------------------| |-------------------|-----------------------| |---4---4-----4---4-|---4---4---------------| |-4-4---4-----4---4-|---4---4-----4-4-4-4-4-| |-3-2---2-----2---2-|---2---2-----0-2-3-0-2-| | | Gtr VI | E E E E +E E E E E E E E +E E E E |-------------------|-----------------------| |-------------------|-----------------------| |-------------------|-----------------------| |-----4---------4---|-----4-----------4-----| |---4---4-(4)-----4-|---4---4-(4)-------4---| |-2-----------2-----|-4-----------4---------| F#5/A F#5/B E E E E E E E E E E E E E S S E S S |-------------------|------------------------| |-------------------|------------------------| |-------------------|------------------------| |---4---4-----4---4-|---4---4----------------| |-4-4---4-----4---4-|---4---4-----4-4-4-4-4--| |-3-2---2-----2---2-|---2---2-----0-2-3-0-2--| | | E E E E +E E E E E E E E +E E E E |-------------------|------------------------| |-------------------|------------------------| |-------------------|------------------------| |-----4---------4---|-----4-----------4------| |---4---4-(4)-----4-|---4---4-(4)-------4----| |-5-----------5-----|-7-----------7----------| F#5 E/G# Gtr V < E E E E E E E E E E E E E E E E |--------------------------|----------------------------------| |-14-14-14-14-14--14-14-14-|-14-14---14-14---14--14---14-14---| |-11-11-11-11-11--11-11-11-|-11-11---11-11---11--11---11-11---| |--------------------------|----------------------------------| |--------------------------|----------------------------------| |--------------------------|----------------------------------| | | Gtrs III, IV | E E E E E E E E E S S E S S E S S E S S |--------------------------|----------------------------------| |--------------------------|----------------------------------| |--------------------------|----------------------------------| |-----4-----4------4-----4-|-----2-2-----2-2------2-2-----2-2-| |--4--4-----4------4-----4-|-----2-2-----2-2------2-2-----2-2-| |--3--2-----2------2-----2-|-----4-4-----4-4------4-4-----4-4-| | | Gtr VI | E E E E +E E E E E E E E +E E E E |--------------------------|----------------------------------| |--------------------------|----------------------------------| |--------------------------|----------------------------------| |--------4------------4----|----------2----------------2------| |-----4-----4-(4)--------4-|-----2-------2---(2)----------2---| |--2---------------2-------|--4-------------------4-----------| Asus2 B5 E E E E E E E E E E E S S E E E E |----------------------------------|--------------------------------| |-14-14---14-14---14--14---14-14---|-14-17---17-17-17-17--15-15-14--| |-11-11---11-11---11--11---11-11---|-11-----------------------------| |----------------------------------|----14---14-14-14-14--12-12-11--| |----------------------------------|--------------------------------| |----------------------------------|--------------------------------| | | E S S E S S E S S E S S E S S E S S E E E E |----------------------------------|--------------------------------| |----------------------------------|--------------------------------| |----------------------------------|-----4-4-----4--4---------------| |-----2-2-----2-2------2-2-----2-2-|-----4-4-----4--4---------------| |-----2-2-----2-2------2-2-----2-2-|-----2-2-----2--2---------------| |-----5-5-----5-5------5-5-----5-5-|-----------------------0--3--2--| | | E E E E +E E E E E E E E +E E E E |----------------------------------|--------------------------------| |----------------------------------|--------------------------------| |----------------------------------|----------4---------------4-----| |----------2----------------2------|-----4-------4----(4)--------4--| |-----2-------2---(2)----------2---|--2--------------------2--------| |--5-------------------5-----------|--------------------------------| F#5 F#5/G# E E E E E E E E E E E E E E E E |----------------------------------|------------------------------------| |-14-14---14-14---14----14-14-14---|-14-14---14-14---14----14---14-14---| |-11-11---11-11---11----11-11-11---|-11-11---11-11---11----11---11-11---| |----------------------------------|------------------------------------| |----------------------------------|------------------------------------| |----------------------------------|------------------------------------| | | E S S E S S +S S E E S S E S S E S S +S S E E S S |---------------------------5------|-----------------------------5------| |--7--5-5--7--5-7-(7)-7--5-----7-5-|--7--5-5--7--5-7-(7)-7--5-------7-5-| |----------------------------------|------------------------------------| |-----4-------4----------4-----4---|-----4-------4----------------------| |--4--4-------4----------4-----4---|-----4-------4----------4-4--4--4-4-| |--3--2-------2----------2-----2---|-----2-------2----------0-2--3--0-2-| | E E E E E E E E E E E E E S S E S S | | E E E E +E E E E E E E E +E E E E |----------------------------------|------------------------------------| |----------------------------------|------------------------------------| |----------------------------------|------------------------------------| |----------4----------------4------|----------4------------------4------| |-----4-------4---(4)----------4---|-----4-------4---(4)------------4---| |--2---------------------2---------|--4---------------------4-----------| F#5/A F#5/B E E E E E E E E E E E S S E E E E |----------------------------------|-------------------------------------| |-14-14---14-14---14----14-14-14---|-14-17---17-17-17-17----15---15-14---| |-11-11---11-11---11----11-11-11---|-11----------------------------------| |----------------------------------|----14---14-14-14-14----12---12-11---| |----------------------------------|-------------------------------------| |----------------------------------|-------------------------------------| | | E S S E S S +S S E E S S E S S E S S +S S E E S S |---------------------------5------|------------------------------5------| |--7--5-5--7--5-7-(7)-7--5-----7-5-|--7--5-5--7--5--7-(7)-7--5-------7-5-| |----------------------------------|-------------------------------------| |-----4-------4----------4-----4---|-----4-------4-----------------------| |--4--4-------4----------4-----4---|-----4-------4-----------4-4--4--4-4-| |--3--2-------2----------2-----2---|-----2-------2-----------0-2--3--0-2-| | E E E E E E E E E E E E E S S E S S | | E E E E +E E E E E E E E +E E E E |----------------------------------|-------------------------------------| |----------------------------------|-------------------------------------| |----------------------------------|-------------------------------------| |----------4----------------4------|----------4-------------------4------| |-----4-------4---(4)----------4---|-----4-------4----(4)------------4---| |--5---------------------5---------|--7----------------------7-----------| F#5 E/G# E E E E E E E E E E E E E E E E |----------------------------------|------------------------------------| |-14-14---14-14---14----14-14-14---|-14-14---14-14---14----14---14-14---| |-11-11---11-11---11----11-11-11---|-11-11---11-11---11----11---11-11---| |----------------------------------|------------------------------------| |----------------------------------|------------------------------------| |----------------------------------|------------------------------------| | | E S S E S S +S S E E S S E S S E S S +S S E E S S |---------------------------5------|-----------------------------5------| |--7--5-5--7--5-7-(7)-7--5-----7-7-|--7--5-5--7--5-7-(7)-7--5-------7-7-| |----------------------------------|------------------------------------| |-----4-------4----------4-----4---|-----2-2-----2-2--------2-2-----2-2-| |--4--4-------4----------4-----4---|-----2-2-----2-2--------2-2-----2-2-| |--3--2-------2----------2-----2---|-----4-4-----4-4--------4-4-----4-4-| | E E E E E E E E E S S E S S E S S E S S | | E E E E +E E E E E E E E +E E E E |----------------------------------|------------------------------------| |----------------------------------|------------------------------------| |----------------------------------|------------------------------------| |----------4----------------4------|----------2------------------2------| |-----4-------4---(4)----------4---|-----2-------2---(2)------------2---| |--2---------------------2---------|--4---------------------4-----------| Asus2 B5 N.C. E E E E E E E E E E E S S E E E E |------------------------------------|---------------------------------| |-14-14---14-14---14----14---14-14---|-14-17---17-17-17-17--15-15-14---| |-11-11---11-11---11----11---11-11---|-11------------------------------| |------------------------------------|----14---14-14-14-14--12-12-11---| |------------------------------------|---------------------------------| |------------------------------------|---------------------------------| | | E S S E S S +S S E E S S E E E E E E E E |-----------------------------5------|-----------------------7-10--7---| |--7--5-5--7--5-7-(7)-7--5-------7-7-|--7-------7--------7-------------| |------------------------------------|-----6-------6-------------------| |-----2-2-----2-2--------2-2-----2-2-|-----4-4-----4--4----------------| |-----2-2-----2-2--------2-2-----2-2-|-----2-2-----2--2----------------| |-----5-5-----5-5--------5-5-----5-5-|-----------------------0--3--2---| | E S S E S S E S S E S S E S S E S S E E E E | | E E E E +E E E E E E E E +E E E E |------------------------------------|---------------------------------| |------------------------------------|---------------------------------| |------------------------------------|----------4----------------------| |----------2------------------2------|-----4-------4----(4)------------| |-----2-------2---(2)------------2---|--2------------------------------| |--5---------------------5-----------|-----------------------0--3--2---| H.=H F#5 ~~~~~~~~~~~~~~~~~ E E E E +H +W +Q Q H |-12-9--------------|-------------|----------------*| |-------------------|-------------|----------------*| |--------11-(11)----|-(11)--------|-(11)----------*| |-------------------|-------------|----------------*| |-------------------|-------------|----------------*| |-------------------|-------------|----------------*| | | Gtrs III, IV, VI | E E E E +H +W +W |-------------------|-------------|----------------*| |-------------------|-------------|----------------*| |-------------------|-------------|----------------*| |---------4--(4)----|--(4)--------|--(4)-----------*| |---------4--(4)----|--(4)--------|--(4)-----------*| |--3-2----2--(2)----|--(2)--------|--(2)-----------*| Duration Legend --------------- W - whole; H - half; Q - quarter; E - 8th; S - 16th; T - 32nd; X - 64th; a - acciaccatura + - note tied to previous; . - note dotted; .. - note double dotted Uncapitalized letters represent notes that are staccato (1/2 duration) Irregular groupings are notated above the duration line Duration letters will always appear directly above the note/fret number it represents the duration for. Duration letters with no fret number below them represent rests. Multi- bar rests are notated in the form Wxn, where n is the number of bars to rest for. Low melody durations appear below the staff Tablature Legend ---------------- h - hammer-on p - pull-off b - bend pb - pre-bend r - bend release (if no number after the r, then release immediately) / - slide into or out of (from/to "nowhere") s - legato slide S - shift slide - natural harmonic [n] - artificial harmonic n(n) - tapped harmonic ~ - vibrato tr - trill T - tap TP - trem. picking PM - palm muting n/ - tremolo bar dip; n = amount to dip n - tremolo bar down n/ - tremolo bar up /n - tremolo bar inverted dip = - hold bend; also acts as connecting device for hammers/pulls <> - volume swell (louder/softer) x - on rhythm slash represents muted slash o - on rhythm slash represents single note slash Misc Legend ----------- | - bar || - double bar ||o - repeat start o|| - repeat end *| - double bar (ending) : - bar (freetime) $ - Segno & - Coda Tempo markers - = BPM(8/16=s8/s16), where s8 = swing 8ths, s16 = swing 16ths *************************************************************************************** * Generated using Power Tab Editor by Brad Larsen - http://powertab.guitarnetwork.org * ***************************************************************************************

    http://www.powertabs.net
    лекарство в аптеке
    список лекарств






    О сайтеАккордыХит-парадПоискУроки ФорумыИщу песню
    ПрограммыСвежачок-сПодпискаСтатьи
    Яндекс.Метрика