Табулатура Metallica | Disposable Heroes  (2) гитара табулатуры уроки тексты песен Metallica текст lyrics песня аккорды песни ноты нота электрогитара струна  
   А Б В Г Д Е Ж З И К Л М Н О П Р С Т У Ф Х Ч Ш Ы Э Ю Я       Разные песни
1-9 A B C D E F G H I J K L M N O P Q R S T U V W Y Z      Все исполнители in english

    



группа Metallica, Табулатура песни Disposable Heroes (2)

Работа в Европе для граждан РФ, Украины, СНГ

  • минимальная зарплата $500.
  • виза и контракт на полгода, возможно продление
  • проживание оплачивает работодатель
  • нужен только загранпаспорт
  • оформление 190 €
  • данное предложение - отличная возможность эмигрировать в Европу и закрепиться здесь навсегда.

  • Мы свяжемся с Вами по WhatsApp или Viber и ответим на любые вопросы.
    на нашем сайте можно почитать подробнее »

    Группа: Metallica - другие аккорды (225),   о группе (32 статей),   диски (11),   фотографии (49)
    Табулатура песни: Disposable Heroes (2)
    Просмотров: 1669
    Прислал: DiaSpar (diaspar@i.com.ua)




        
    #----------------------------------PLEASE NOTE---------------------------------#
    #This file is the author's own work and represents their interpretation of the #
    #song. You may only use this file for private study, scholarship, or research. #
    #------------------------------------------------------------------------------##
                                    DISPOSABLE HEROES
                                As recorded by Metallica
                         (From the 1986 Album MASTER OF PUPPETS)
    
    Gtr I (E A D G B E) - 'Hetfield'
    Gtr II (E A D G B E) - 'Hammett'
    Gtr III (E A D G B E) - 'Extra'
       Intro
        Fast Rock Q=206
                    F#5G5 F#5              G5 A5 F#5              F#5G5 F#5
       6/4
        Gtrs I, II
        PM--------|            PM--------|            PM--------|
        E E E E E E Q  Q  Q    E E E E E E Q  Q  Q    E E E E E E Q  Q  Q
    ||-----------------------|----------------------|-----------------------|
    ||o----------------------|----------------------|-----------------------|
    ||-----------------------|----------------------|-----------------------|
    ||-----------------------|----------------------|-----------------------|
    ||o-------------4--5--4--|-------------5--7--4--|-------------4--5--4---|
    ||--0-0-0-0-0-0-2--3--2--|-0-0-0-0-0-0-3--5--2--|-0-0-0-0-0-0-2--3--2---|
    
                        E5
      Gtr II
      PM--------------|
      E E E E E E E E E Q.
    |-------------------------||-|
    |------------------------o||-|
    |-------------------9-----||-|
    |-------------------9-----||-|
    |-------------------7----o||-|
    |-0-0-0-0-0-0-0-0-0-------||-|
    |
    | Gtr I
    | PM--------------|
    | E E E E E E E E E Q.
    |-------------------------||-|
    |------------------------o||-|
    |-------------------9-----||-|
    |-------------------9-----||-|
    |-------------------7----o||-|
    |-0-0-0-0-0-0-0-0-0-------||-|
    
                     F#5 G5  F#5   E5           G5  A5  F#5
        H.            Q   Q   Q    H.            Q   Q   Q
    ||---------------------------|--------------------------|
    ||o--------------------------|--------------------------|
    ||--9------------------------|-9------------------------|
    ||--9------------11--12--11--|-9------------12--14--11--|
    ||o-7-------------9--10---9--|-7------------10--12---9--|
    ||---------------------------|--------------------------|
    |
    |   PM---------|               PM---------|
    |   E  E E E E E  Q   Q   Q    E  E E E E E  Q   Q   Q
    ||---------------------------|--------------------------|
    ||o--------------------------|--------------------------|
    ||---------------------------|--------------------------|
    ||---------------------------|--------------------------|
    ||o---------------4---5---4--|---------------5---7---4--|
    ||--0--0-0-0-0-0--2---3---2--|-0--0-0-0-0-0--3---5---2--|
    
                                1.
      E5           F#5 G5  F#5   E5                   G5
      H.            Q   Q   Q    H.           +Q.      Q.
    |--------------------------|-----------------------------||
    |--------------------------|----------------------------o||
    |-9------------------------|-9------------(9)-----12-----||
    |-9------------11--12--11--|-9------------(9)-----12-----||
    |-7-------------9--10---9--|-7------------(7)-----10----o||
    |--------------------------|-----------------------------||
    |
    | PM---------|               PM-----------------|
    | E  E E E E E  Q   Q   Q    E  E E E E E  E  E E  Q.
    |--------------------------|-----------------------------||
    |--------------------------|----------------------------o||
    |--------------------------|-----------------------9-----||
    |--------------------------|-----------------------9-----||
    |---------------4---5---4--|-----------------------7----o||
    |-0--0-0-0-0-0--2---3---2--|-0--0-0-0-0-0--0--0-0--------||
    
     2.
      E5
      H.           +Q.     Q.
    |----------------------------|
    |----------------------------|
    |-9------------(9)-----9-----|
    |-9------------(9)-----9-----|
    |-7------------(7)-----7-----|
    |----------------------------|
    |
    | PM-----------------|
    | E  E E E E E  E  E E Q.
    |----------------------------|
    |----------------------------|
    |----------------------9-----|
    |----------------------9-----|
    |----------------------7-----|
    |-0--0-0-0-0-0--0--0-0-------|
    
      Q=188
                        4/4
      Gtrs I, II
                         PM---------------------
      +W.                E S S E E E E S S S S
    |----------------||------------------------|
    |----------------||o-----------------------|
    |-(9)------------||------------------------|
    |-(9)------------||------------------------|
    |-(7)------------||o-----------------------|
    |----------------||--0-0-0-0-0-0-0-0-0-0-0-|
    
     ---------------------------------------------|
      E S S E E E E S S S S   E S S E E E E S S S S
    |-----------------------|------------------------|
    |-----------------------|------------------------|
    |-----------------------|------------------------|
    |-----------------------|------------------------|
    |-----------------------|------------------------|
    |-0-0-0-0-0-0-0-0-0-0-0-|-0-0-0-0-0-0-0-0-0-0-0--|
    
                                    G5                                        A5
      Gtr II
      PM------------------|
      E S S E E E E S S S S  4x      W                        +H.              Q
    |------------------------||-||-------------------------|---------------------------|
    |-----------------------o||-||o------------------------|---------------------------|
    |------------------------||-||--12---------------------|-(12)-------------14S======|
    |------------------------||-||--12---------------------|-(12)-------------14S======|
    |-----------------------o||-||o-10---------------------|-(10)-------------12S======|
    |-0-0-0-0-0-0-0-0-0-0-0--||-||-------------------------|---------------------------|
    |
    | Gtr I
    | PM--------------------------------------------------------------------------------
    | E S S E E E E S S S S  4x      E S S E E E E S S S S     E  S S E E E E  S S S S
    |------------------------||-||-------------------------|---------------------------|
    |-----------------------o||-||o------------------------|---------------------------|
    |------------------------||-||-------------------------|---------------------------|
    |------------------------||-||-------------------------|---------------------------|
    |-----------------------o||-||o------------------------|---------------------------|
    |-0-0-0-0-0-0-0-0-0-0-0--||-||---0-0-0-0-0-0-0-0-0-0-0-|---0--0-0-0-0-0-0--0-0-0-0-|
    
      F#5                                       A5
       W                        +H.              Q
    |------------------------|------------------------------|
    |------------------------|------------------------------|
    |-11---------------------|-(11)-------------14S=========|
    |-11---------------------|-(11)-------------14S=========|
    |--9---------------------|--(9)-------------12S=========|
    |------------------------|------------------------------|
    |
    |--------------------------------------------------|
    |  E S S E E E E S S S S     E  S S E E E E  S S S S
    |------------------------|------------------------------|
    |------------------------|------------------------------|
    |------------------------|------------------------------|
    |------------------------|------------------------------|
    |------------------------|------------------------------|
    |--0-0-0-0-0-0-0-0-0-0-0-|---0--0-0-0-0-0-0--0-0-0-0----|
    
      F5                                        G5
       W                        +H.              Q
    |------------------------|---------------------------|
    |------------------------|---------------------------|
    |-10---------------------|-(10)-------------12S======|
    |-10---------------------|-(10)-------------12S======|
    |--8---------------------|--(8)-------------10S======|
    |------------------------|---------------------------|
    |
    |  PM-------------------------------------------------
    |  E S S E E E E S S S S     E  S S E E E E  S S S S
    |------------------------|---------------------------|
    |------------------------|---------------------------|
    |------------------------|---------------------------|
    |------------------------|---------------------------|
    |------------------------|---------------------------|
    |--0-0-0-0-0-0-0-0-0-0-0-|---0--0-0-0-0-0-0--0-0-0-0-|
    
      E5
      W                       +W
    |-----------------------|--------------------------||
    |-----------------------|-------------------------o||
    |-9---------------------|-(9)----------------------||
    |-9---------------------|-(9)----------------------||
    |-7---------------------|-(7)---------------------o||
    |-----------------------|--------------------------||
    |
    |-----------------------------------------------|
    | E S S E E E E S S S S    E  S S E E E E S S S S
    |-----------------------|--------------------------||
    |-----------------------|-------------------------o||
    |-----------------------|--------------------------||
    |-----------------------|--------------------------||
    |-----------------------|-------------------------o||
    |-0-0-0-0-0-0-0-0-0-0-0-|--0--0-0-0-0-0-0-0-0-0-0--||
    
        Faster Q=188
        C#5
        Gtrs I, II
            PM------|   PM--------|
        E S S S S S S E S S S S S S
    ||------------------------------|
    ||o-----------------------------|
    ||------------------------------|
    ||--6---------------------------|
    ||o-4-4-4-4-4-4-4-4-4-4-4-4-4-4-|
    ||------------------------------|
    
      C#5
        PM--------|   PM--------|
      E S S S S S S E S S S S S S  3x E E E E E E E E
    |------------------------------||-----------------|
    |-----------------------------o||-----------------|
    |------------------------------||-----------------|
    |-6----------------------------||---5p4---4p2-----|
    |-4-4-4-4-4-4-4-4-4-4-4-4-4-4-o||-0-----0-----5-4-|
    |------------------------------||-----------------|
    
      G5F#E5D5C#B5
                      PM------------------------------------------|
      |-3-| |-3-|
      Q Q Q Q Q Q     E S S E E E E S S S S   E S S E E E E S S S S  4x
    |-------------||------------------------|------------------------||
    |-------------||o-----------------------|-----------------------o||
    |-------7-6-4-||------------------------|------------------------||
    |-5-4-2-7-6-4-||------------------------|------------------------||
    |-5-4-2-5-4-2-||o-----------------------|-----------------------o||
    |-3-2-0-------||--0-0-0-0-0-0-0-0-0-0-0-|-0-0-0-0-0-0-0-0-0-0-0--||
    
       1st,2nd,3rd Verses
        $
        PM------------------------------------------------------------------|
        E S S E E E E S S S S   E S S E E E E S S S S   E S S E E E E S S S S
    ||------------------------|-----------------------|------------------------|
    ||o-----------------------|-----------------------|------------------------|
    ||------------------------|-----------------------|------------------------|
    ||------------------------|-----------------------|------------------------|
    ||o-----------------------|-----------------------|------------------------|
    ||--0-0-0-0-0-0-0-0-0-0-0-|-0-0-0-0-0-0-0-0-0-0-0-|-3-3-3-3-3-3-3-3-3-3-3--|
    
      PM---------------------------------------------
      E S S E E E E S S S S   E S S E E E E S S S S
    |-----------------------|-----------------------|
    |-----------------------|-----------------------|
    |-----------------------|-----------------------|
    |-----------------------|-----------------------|
    |-----------------------|-----------------------|
    |-2-2-2-2-2-2-2-2-2-2-2-|-0-0-0-0-0-0-0-0-0-0-0-|
    
     ---------------------------------------------|
      E S S E E E E S S S S   E S S E E E E S S S S
    |-----------------------|-----------------------|
    |-----------------------|-----------------------|
    |-----------------------|-----------------------|
    |-----------------------|-----------------------|
    |-----------------------|-----------------------|
    |-0-0-0-0-0-0-0-0-0-0-0-|-3-3-3-3-3-3-3-3-3-3-3-|
    
      PM---------------------------------------------
      E S S E E E E S S S S   E S S E E E E S S S S
    |-----------------------|-----------------------|
    |-----------------------|-----------------------|
    |-----------------------|-----------------------|
    |-----------------------|-----------------------|
    |-----------------------|-----------------------|
    |-7-7-7-7-7-7-7-7-7-7-7-|-0-0-0-0-0-0-0-0-0-0-0-|
    
     ---------------------------------------------|
      E S S E E E E S S S S   E S S E E E E S S S S
    |-----------------------|-----------------------|
    |-----------------------|-----------------------|
    |-----------------------|-----------------------|
    |-----------------------|-----------------------|
    |-----------------------|-----------------------|
    |-0-0-0-0-0-0-0-0-0-0-0-|-3-3-3-3-3-3-3-3-3-3-3-|
    
      PM---------------------------------------------
      E S S E E E E S S S S   E S S E E E E S S S S
    |-----------------------|-----------------------|
    |-----------------------|-----------------------|
    |-----------------------|-----------------------|
    |-----------------------|-----------------------|
    |-----------------------|-----------------------|
    |-2-2-2-2-2-2-2-2-2-2-2-|-0-0-0-0-0-0-0-0-0-0-0-|
    
     ---------------------------------------------|
      E S S E E E E S S S S   E S S E E E E S S S S
    |-----------------------|-----------------------|
    |-----------------------|-----------------------|
    |-----------------------|-----------------------|
    |-----------------------|-----------------------|
    |-----------------------|-----------------------|
    |-0-0-0-0-0-0-0-0-0-0-0-|-0-0-0-0-0-0-0-0-0-0-0-|
    
                               C#5
      PM------------------|        PM------|   PM--------|
      E S S E E E E S S S S    E S S S S S S E S S S S S S
    |-----------------------||-----------------------------|
    |-----------------------||-----------------------------|
    |-----------------------||-----------------------------|
    |-----------------------||-6---------------------------|
    |-----------------------||-4-4-4-4-4-4-4-4-4-4-4-4-4-4-|
    |-0-0-0-0-0-0-0-0-0-0-0-||-----------------------------|
    
      C#5                           C#5
                                   3/4
        PM--------|   PM--------|       PM------|   PM|
      E S S S S S S E S S S S S S   E S S S S S S E S S
    |-----------------------------|---------------------|
    |-----------------------------|---------------------|
    |-----------------------------|---------------------|
    |-6---------------------------|-6-------------------|
    |-4-4-4-4-4-4-4-4-4-4-4-4-4-4-|-4-4-4-4-4-4-4-4-4-4-|
    |-----------------------------|---------------------|
    
      B5                    C#5
                           4/4
          PM------|   PM|       PM------|   PM--------|
      E S S S S S S E S S   E S S S S S S E S S S S S S
    |---------------------|-----------------------------|
    |---------------------|-----------------------------|
    |---------------------|-----------------------------|
    |-4-------------------|-6---------------------------|
    |-2-2-2-2-2-2-2-2-2-2-|-4-4-4-4-4-4-4-4-4-4-4-4-4-4-|
    |---------------------|-----------------------------|
    
      C#5                           C#5
                                   3/4
        PM--------|   PM--------|       PM------|   PM|
      E S S S S S S E S S S S S S   E S S S S S S E S S
    |-----------------------------|---------------------|
    |-----------------------------|---------------------|
    |-----------------------------|---------------------|
    |-6---------------------------|-6-------------------|
    |-4-4-4-4-4-4-4-4-4-4-4-4-4-4-|-4-4-4-4-4-4-4-4-4-4-|
    |-----------------------------|---------------------|
    
      B5                    C#5
                           4/4
          PM------|   PM|       PM------|   PM--------|
      E S S S S S S E S S   E S S S S S S E S S S S S S
    |---------------------|-----------------------------|
    |---------------------|-----------------------------|
    |---------------------|-----------------------------|
    |-4-------------------|-6---------------------------|
    |-2-2-2-2-2-2-2-2-2-2-|-4-4-4-4-4-4-4-4-4-4-4-4-4-4-|
    |---------------------|-----------------------------|
    
      C#5                           C#5
                                   3/4
        PM--------|   PM--------|       PM------|   PM|
      E S S S S S S E S S S S S S   E S S S S S S E S S
    |-----------------------------|---------------------|
    |-----------------------------|---------------------|
    |-----------------------------|---------------------|
    |-6---------------------------|-6-------------------|
    |-4-4-4-4-4-4-4-4-4-4-4-4-4-4-|-4-4-4-4-4-4-4-4-4-4-|
    |-----------------------------|---------------------|
    
      B5                    C#5
                           4/4
          PM------|   PM|       PM------|   PM--------|
      E S S S S S S E S S   E S S S S S S E S S S S S S
    |---------------------|-----------------------------|
    |---------------------|-----------------------------|
    |---------------------|-----------------------------|
    |-4-------------------|-6---------------------------|
    |-2-2-2-2-2-2-2-2-2-2-|-4-4-4-4-4-4-4-4-4-4-4-4-4-4-|
    |---------------------|-----------------------------|
    
      C#5                           C#5
                                   3/4
        PM--------|   PM--------|       PM------|   PM|
      E S S S S S S E S S S S S S   E S S S S S S E S S
    |-----------------------------|---------------------|
    |-----------------------------|---------------------|
    |-----------------------------|---------------------|
    |-6---------------------------|-6-------------------|
    |-4-4-4-4-4-4-4-4-4-4-4-4-4-4-|-4-4-4-4-4-4-4-4-4-4-|
    |-----------------------------|---------------------|
    
      B5                     B5
                            4/4
      Gtr II
          PM------|   PM|
      E S S S S S S E S S    Q     +E.     T T Q     +E.     T T
    |---------------------||-------------------------------------|
    |---------------------||-------------------------------------|
    |---------------------||-4-----(4)h====5p4S2-----(2)s====4h5-|
    |-4-------------------||-------------------------------------|
    |-2-2-2-2-2-2-2-2-2-2-||-------------------------------------|
    |---------------------||-------------------------------------|
    |
    | Gtr I
    |     PM------|   PM|        PM--------|     PM----------|
    | E S S S S S S E S S    E S S  S  S S S   E S S  S  S S S
    |---------------------||-------------------------------------|
    |---------------------||-------------------------------------|
    |---------------------||-------------------------------------|
    |-4-------------------||-4-----------------------------------|
    |-2-2-2-2-2-2-2-2-2-2-||-2-2-2--2--2-2-2---2-2-2--2--2-2-2---|
    |---------------------||-------------------------------------|
    
      B5
      Q     +E.     T T Q     +E.     T T
    |--------------------------------------|
    |--------------------------------------|
    |-4-----(4)h====5p4S2-----(2)s====4h5--|
    |--------------------------------------|
    |--------------------------------------|
    |--------------------------------------|
    |
    |     PM--------|     PM----------|
    | E S S  S  S S S   E S S  S  S S S
    |--------------------------------------|
    |--------------------------------------|
    |--------------------------------------|
    |-4------------------------------------|
    |-2-2-2--2--2-2-2---2-2-2--2--2-2-2----|
    |--------------------------------------|
    
      B5                        A5
     3/4
                                1                    |
                                ~~~~~~~~~~~~~~~~~~~~~~~~~
      Q     +E.     T T Q       Q      +Q        +E  +E
    |-------------------------|----------------------------|
    |-------------------------|----------------------------|
    |-4-----(4)h====5p4S2-----|-4------(4)-------(4)-(4)---|
    |-------------------------|----------------------------|
    |-------------------------|----------------------------|
    |-------------------------|----------------------------|
    |
    |     PM--------|     PM|        PM--------|      PM-|
    | E S S  S  S S S   E S S   E  S S  S  S S S  E   S  S
    |-------------------------|----------------------------|
    |-------------------------|----------------------------|
    |-------------------------|----------------------------|
    |-4-----------------------|-2--------------------------|
    |-2-2-2--2--2-2-2---2-2-2-|-0--0-0--0--0-0-0--0---0--0-|
    |-------------------------|----------------------------|
    
      B5                                    B5
     4/4
      Q     +E.     T T Q     +E.     T T   Q     +E.     T T Q     +E.     T T
    |-------------------------------------|----------------------------------------|
    |-------------------------------------|----------------------------------------|
    |-4-----(4)h====5p4S2-----(2)s====4h5-|-4-----(4)h====5p4S2-----(2)s====4h5----|
    |-------------------------------------|----------------------------------------|
    |-------------------------------------|----------------------------------------|
    |-------------------------------------|----------------------------------------|
    |
    |     PM--------|     PM----------|         PM--------|     PM----------|
    | E S S  S  S S S   E S S  S  S S S     E S S  S  S S S   E S S  S  S S S
    |-------------------------------------|----------------------------------------|
    |-------------------------------------|----------------------------------------|
    |-------------------------------------|----------------------------------------|
    |-4-----------------------------------|-4--------------------------------------|
    |-2-2-2--2--2-2-2---2-2-2--2--2-2-2---|-2-2-2--2--2-2-2---2-2-2--2--2-2-2------|
    |-------------------------------------|----------------------------------------|
    
      B5                        A5
     3/4
                                1                    |
                                ~~~~~~~~~~~~~~~~~~~~~~~~~
      Q     +E.     T T Q       Q      +Q        +E  +E
    |-------------------------|----------------------------|
    |-------------------------|----------------------------|
    |-4-----(4)h====5p4S2-----|-4------(4)-------(4)-(4)---|
    |-------------------------|----------------------------|
    |-------------------------|----------------------------|
    |-------------------------|----------------------------|
    |
    |     PM--------|     PM|        PM--------|      PM-|
    | E S S  S  S S S   E S S   E  S S  S  S S S  E   S  S
    |-------------------------|----------------------------|
    |-------------------------|----------------------------|
    |-------------------------|----------------------------|
    |-4-----------------------|-2--------------------------|
    |-2-2-2--2--2-2-2---2-2-2-|-0--0-0--0--0-0-0--0---0--0-|
    |-------------------------|----------------------------|
    
          To Coda
      B5BbB5C5 B5                   G5
     4/4
      |-3-|
      Q Q Q Q  Q    E S S E E E E E E
    |-------------|--------------------|
    |-------------|--------------------|
    |-4-3-4-5--4--|--------------------|
    |-4-3-4-5--4--|-----------------5--|
    |-2-1-2-3--2--|-----------------5--|
    |-------------|-0-0-0-0-0-0-0-0-3--|
    |
    | |-3-|
    | Q Q Q Q  Q    E S S E E E E E E
    |-------------|--------------------|
    |-------------|--------------------|
    |-4-3-4-5--4--|--------------------|
    |-4-3-4-5--4--|-----------------5--|
    |-2-1-2-3--2--|-----------------5--|
    |-------------|-0-0-0-0-0-0-0-0-3--|
    
      G5         Bb5F#5            A5 F5             G5                     G5
      Gtrs I, II
      +H     +E  Q  E   +H     +E  Q  E   +H     +E  Q.     E S S E E E E E E
    |-----------------|-----------------|-----------------|-------------------|
    |-----------------|-----------------|-----------------|-------------------|
    |-----------------|-----------------|-----------------|-------------------|
    |-(5)----(5)-8--4-|-(4)----(4)-7--3-|-(3)----(3)-5----|-----------------5-|
    |-(5)----(5)-8--4-|-(4)----(4)-7--3-|-(3)----(3)-5----|-----------------5-|
    |-(3)----(3)-6--2-|-(2)----(2)-5--1-|-(1)----(1)-3----|-0-0-0-0-0-0-0-0-3-|
    
                 Bb5F#5            A5 F5             G5                     G5
      +H     +E  Q  E   +H     +E  Q  E   +H     +E  Q.     E S S E E E E E E
    |-----------------|-----------------|-----------------|-------------------|
    |-----------------|-----------------|-----------------|-------------------|
    |-----------------|-----------------|-----------------|-------------------|
    |-(5)----(5)-8--4-|-(4)----(4)-7--3-|-(3)----(3)-5----|-----------------5-|
    |-(5)----(5)-8--4-|-(4)----(4)-7--3-|-(3)----(3)-5----|-----------------5-|
    |-(3)----(3)-6--2-|-(2)----(2)-5--1-|-(1)----(1)-3----|-0-0-0-0-0-0-0-0-3-|
    
                 Bb5F#5            A5 F5             G5                     G5
      +H     +E  Q  E   +H     +E  Q  E   +H     +E  Q.     E S S E E E E E E
    |-----------------|-----------------|-----------------|-------------------|
    |-----------------|-----------------|-----------------|-------------------|
    |-----------------|-----------------|-----------------|-------------------|
    |-(5)----(5)-8--4-|-(4)----(4)-7--3-|-(3)----(3)-5----|-----------------5-|
    |-(5)----(5)-8--4-|-(4)----(4)-7--3-|-(3)----(3)-5----|-----------------5-|
    |-(3)----(3)-6--2-|-(2)----(2)-5--1-|-(1)----(1)-3----|-0-0-0-0-0-0-0-0-3-|
    
                 Bb5F#5            A5 F5
      +H     +E  Q  E   +H     +E  Q  E
    |-----------------|-----------------|
    |-----------------|-----------------|
    |-----------------|-----------------|
    |-(5)----(5)-8--4-|-(4)----(4)-7--3-|
    |-(5)----(5)-8--4-|-(4)----(4)-7--3-|
    |-(3)----(3)-6--2-|-(2)----(2)-5--1-|
    
                 G5                       E5
                       7/8               2/4
                        PM------------|
      +H     +E  Q.     E S S E E E E E   E E Q
    |-----------------|-----------------|----------||
    |-----------------|-----------------|---------o||
    |-----------------|-----------------|----------||
    |-(3)----(3)-5----|-----------------|----------||
    |-(3)----(3)-5----|-----------------|-2-------o||
    |-(1)----(1)-3----|-0-0-0-0-0-0-0-0-|-0--------||
    
                         Bridge
                          E5
     7/8                 4/4
      PM------------|        PM|     PM|
      E S S E E E E E     Q  E E E E E E
    |-----------------||-----------------|
    |-----------------||o----------------|
    |-----------------||-----------------|
    |-----------------||--2--------------|
    |-----------------||o-2------5h7-----|
    |-0-0-0-0-0-0-0-0-||--0--0-0-0---0-0-|
    
      Dsus2/EC#m/E     E5     Dsus2/E   Dsus2/EC#m/E5
         PM|     PM|      PM|     PM|      PM|
      Q  E E E E E E   Q  E E E E E E   Q  E E E E Q   4x
    |----------------|----------------|----------------||
    |----------------|----------------|---------------o||
    |----------------|----------------|----------------||
    |----------------|-2--------------|----------------||
    |-5------4h7-----|-2------5h7-----|-5------4h7-2--o||
    |-0--0-0-0---0-0-|-0--0-0-0---0-0-|-0--0-0-0---0---||
    
     Guitar Solo
      E5                          Dsus2/E                 Dsus2/E         C#m/E
      Gtr II
       E      +E    +E       +E    Q        +E    E        +Q     S  S  E  E  E      +E    E
    |---------------------------------------------------|---------------------------------12-|
    |-15-----(15)--(15)-----(15)--15-------(15)--15-----|-(15)-------------------------------|
    |-14b16==(14)r-(14)b16==(14)r-14b16====(14)r-14b16==|=(14)r--14-12----12-14b16==(14)r----|
    |---------------------------------------------------|--------------14--------------------|
    |---------------------------------------------------|------------------------------------|
    |---------------------------------------------------|------------------------------------|
    |
    | Gtr I
    |                PM-----|                PM--|                PM---|              PM--|
    |  Q             E        E    E     E   E    E         Q     E     E  E  E       E    E
    |---------------------------------------------------|------------------------------------|
    |---------------------------------------------------|------------------------------------|
    |---------------------------------------------------|------------------------------------|
    |--2------------------------------------------------|------------------------------------|
    |--2---------------------------5h====7--------------|---5--------------4h=7--------------|
    |--0-------------0--------0----0---------0----0-----|---0-----0-----0--0----------0----0-|
    
      E5                      Dsus2/E             Dsus2/E                         C#m/E
       S  S  S  S  S  E.    a  E  S  S  S  S  E    S      +S    E  S      +S    E  E      +E    S      +S    E
    |----------------------12-------------12----|--------------12--------------12---------------------------12---|
    |-15-12----12-15-12-------12-15-12-15----12-|-15b17==(15)r----15b17==(15)r----15b17==(15)r-15b17==(15)r------|
    |-------14----------------------------------|----------------------------------------------------------------|
    |-------------------------------------------|----------------------------------------------------------------|
    |-------------------------------------------|----------------------------------------------------------------|
    |-------------------------------------------|----------------------------------------------------------------|
    |
    |              PM----|              PM---|                     PM----------|
    |  Q           E     E     E  E     E     E    Q               E            E  E       E    Q
    |-------------------------------------------|----------------------------------------------------------------|
    |-------------------------------------------|----------------------------------------------------------------|
    |-------------------------------------------|----------------------------------------------------------------|
    |--2----------------------------------------|----------------------------------------------------------------|
    |--2-----------------------5h=7-------------|--5-------------------------------4h======7----2----------------|
    |--0-----------0-----0-----0--------0-----0-|--0---------------0------------0--0------------0----------------|
    
      E5                    Dsus2/E                      Dsus2/E            C#m/E
                    ~~~~~~~~~~~~~~
       E      +E    Q        +Q      S      +S    S  S    S  S  E  E  E      +E    E  S  S  E
    |-22b24==(22)r-22b24====(22)r---22b24==(22)r-22p19-|-22p19----19--------------19----------|
    |--------------------------------------------------|-------22----22b24==(22)r----22p19-22-|
    |--------------------------------------------------|--------------------------------------|
    |--------------------------------------------------|--------------------------------------|
    |--------------------------------------------------|--------------------------------------|
    |--------------------------------------------------|--------------------------------------|
    |
    |               PM----|          PM----------|                 PM|                PM---|
    |  Q            E     E   E   E  E            E       Q        E  E       E    E  E     E
    |--------------------------------------------------|--------------------------------------|
    |--------------------------------------------------|--------------------------------------|
    |--------------------------------------------------|--------------------------------------|
    |--2-----------------------------------------------|--------------------------------------|
    |--2----------------------5h==7--------------------|--5-------------------4h===7----------|
    |--0------------0-----0---0------0------------0----|--0--------0--0-------0-------0-----0-|
    
      E5                       Dsus2/E                    Dsus2/E                         C#m/E    E5
                                                                                           ~~~~~~~~~~~~~~~~~~~
       S      +S    E  S  S  E  S      +S    E  S  S  E    S      +S    E  S      +S    E  Q        +E   +E
    |--------------19-----------------------19----------|--------------19--------------19-----------------------|
    |-22b24==(22)r----22p19-22-22b24==(22)r----22p19-22-|-22b24==(22)r----22b24==(22)r----22b24====(22)-(22)r---|
    |---------------------------------------------------|-------------------------------------------------------|
    |---------------------------------------------------|-------------------------------------------------------|
    |---------------------------------------------------|-------------------------------------------------------|
    |---------------------------------------------------|-------------------------------------------------------|
    |
    |                  PM---|                   PM---|                     PM----------|
    |  Q               E     E  E            E  E     E    Q               E            E  E     E   Q
    |---------------------------------------------------|-------------------------------------------------------|
    |---------------------------------------------------|-------------------------------------------------------|
    |---------------------------------------------------|-------------------------------------------------------|
    |--2------------------------------------------------|-------------------------------------------------------|
    |--2------------------------5h===========7----------|--5-------------------------------4h====7---2----------|
    |--0---------------0-----0--0---------------0-----0-|--0---------------0------------0--0---------0----------|
    
      E5                  Dsus2/E                 Dsus2/E             C#m/E
       |--3--|  |---3---|  |---3---|  |---3---|    |--3--|  |---3---|  |---3---|  |---3---|
       E  E  E  E  E    E  E  E    E  E  E    E    E  E  E  E  E    E  E  E    E  E  E    E
    |-19-20-22-20-19---17-19-17---15-17-15S==14-|-15-17-14-15-14---12-14-12S==10-12-10------|
    |-------------------------------------------|----------------------------------------13-|
    |-------------------------------------------|-------------------------------------------|
    |-------------------------------------------|-------------------------------------------|
    |-------------------------------------------|-------------------------------------------|
    |-------------------------------------------|-------------------------------------------|
    |
    |           PM---|                PM---|                PM---|                PM---|
    |  Q        E    E     E    E     E    E       Q        E    E     E    E     E    E
    |-------------------------------------------|-------------------------------------------|
    |-------------------------------------------|-------------------------------------------|
    |-------------------------------------------|-------------------------------------------|
    |--2----------------------------------------|-------------------------------------------|
    |--2-------------------5h===7---------------|--5-------------------4h===7---------------|
    |--0--------0----0-----0----------0----0----|--0--------0----0-----0----------0----0----|
    
      E5                        Dsus2/E
       |--3--|  |------3------|  |---3---|  |---3---|
       E  E  E  E  E    a  a  E  E  E    E  E  E    E
    |----10-12-10--------------------------------------|
    |-13----------13---12h13p12-12-10---12-10----------|
    |-----------------------------------------12---11--|
    |--------------------------------------------------|
    |--------------------------------------------------|
    |--------------------------------------------------|
    |
    |           PM---|                      PM---|
    |  Q        E    E           E    E     E    E
    |--------------------------------------------------|
    |--------------------------------------------------|
    |--------------------------------------------------|
    |--2-----------------------------------------------|
    |--2-------------------------5h===7----------------|
    |--0--------0----0-----------0----------0----0-----|
    
      Dsus2/E                          C#m/E
             T        T     T        T        T           T
       |------6-------|  |-----6-----|  |-----6-----|  |---3---|
       S  S  S  S  S  S  E  S  S  S  S  S  S  S  S  E  E  S  S E
    |------------------------------------------------------------|
    |-15p12-17p15p12-17p15-17p12h15-17p12h15-17p12h15-15-17p12s5-|
    |------------------------------------------------------------|
    |------------------------------------------------------------|
    |------------------------------------------------------------|
    |------------------------------------------------------------|
    |
    |                    PM---|
    |  Q                 E     E        E        E     Q
    |------------------------------------------------------------|
    |------------------------------------------------------------|
    |------------------------------------------------------------|
    |------------------------------------------------------------|
    |--5--------------------------------4h=======7-----2---------|
    |--0-----------------0-----0--------0--------------0---------|
    
      E5          Dsus2/E   Dsus2/E   C#m/E
                            |--3--|
      E     E E E E E E E   Q Q   Q   E +E  E E
    |---------------------|---------------------|
    |---------------------|---------------------|
    |-9b11==9-9-9-9-9---9-|-9-9---9---9r(9)-7-9-|
    |---------------------|---------------------|
    |---------------------|---------------------|
    |---------------------|---------------------|
    |
    |         PM|     PM|       PM--|       PM|
    | Q       E E E E E E   Q   E   E E  E  E E
    |---------------------|---------------------|
    |---------------------|---------------------|
    |---------------------|---------------------|
    |-2-------------------|---------------------|
    |-2-----------5h7-----|-5---------4h=7------|
    |-0-------0-0-0---0-0-|-0---0---0-0-----0-0-|
    
      E5             Dsus2/E     Dsus2/E  C#m/E
      S    +S  E E E S S E E E   E E  E E Q   +Q
    |--------------------------|-------------------|
    |--------------------------|-------------------|
    |-9b11r(9)p7---7-9p7-------|-------------------|
    |------------9-------9-7---|-------------------|
    |------------------------9-|-8-7----7-9---(9)--|
    |--------------------------|-----10------------|
    |
    |            PM|       PM|        PM|
    | Q          E E E   E E E   Q    E E E E  Q
    |--------------------------|-------------------|
    |--------------------------|-------------------|
    |--------------------------|-------------------|
    |-2------------------------|-------------------|
    |-2--------------5h==7-----|-5--------4h7--2---|
    |-0----------0-0-0-----0-0-|-0----0-0-0----0---|
    
      C5                                            D5
       S  S  E  E  E  E  E  E  E    E   E  E  E  Q.      E
    |-18p15----------------------|--------------------------|
    |-------16S13----------------|--------------------------|
    |-------------12-------------|--------------15------15--|
    
    Узнай ВСЕ о своем друге в ВК или FB
    |----------------13-12-------|-----13-15S17-------------| |----------------------15-13-|-15-----------------------| |----------------------------|--------------------------| | | W +H +E Q. |----------------------------|--------------------------| |----------------------------|--------------------------| |--5-------------------------|-(5)----------(5)-7-------| |--5-------------------------|-(5)----------(5)-7-------| |--3-------------------------|-(3)----------(3)-5-------| |----------------------------|--------------------------| C5 |--3--| |--3--| |--3--| |--3--| |--3---| |--3--| |--3--| |--3--| E E E E E E E E E E E E E E E E E E E E E E E E |----------------------------13-13-13-|--------------------------------------| |-13-13-13-15-15-15-16-16-16----------|--------------------13-13-13-15-16-17-| |-------------------------------------|-12--12-12-14-14-14-------------------| |-------------------------------------|--------------------------------------| |-------------------------------------|--------------------------------------| |-------------------------------------|--------------------------------------| | | W +W |-------------------------------------|--------------------------------------| |-------------------------------------|--------------------------------------| |--5----------------------------------|-(5)----------------------------------| |--5----------------------------------|-(5)----------------------------------| |--3----------------------------------|-(3)----------------------------------| |-------------------------------------|--------------------------------------| E5 Dsus2/E |--3--| |---3---| |---3---| |---3---| E E E E E E E E E E E E |-17p12----17p12------17p12------17p12------| |-------12---------12---------12---------12-| |-------------------------------------------| |-------------------------------------------| |-------------------------------------------| |-------------------------------------------| | | PM---| PM---| | Q E E E E E E |-------------------------------------------| |-------------------------------------------| |-------------------------------------------| |--2----------------------------------------| |--2-------------------5h===7---------------| |--0--------0----0-----0----------0----0----| Dsus2/E C#m/E E5 Dsus2/E |--3--| |---3---| |---3---| |---3---| |--3--| |---3---| |---3---| |---3---| E E E E E E E E E E E E E E E E E E E E E E E E |-16p12----16p12------16p12------16p12------|-17p12----17p12------16p12------16p12------| |-------12---------12---------12---------12-|-------12---------12---------12---------12-| |-------------------------------------------|-------------------------------------------| |-------------------------------------------|-------------------------------------------| |-------------------------------------------|-------------------------------------------| |-------------------------------------------|-------------------------------------------| | | PM---| PM---| PM---| PM---| | Q E E E E E E Q E E E E E E |-------------------------------------------|-------------------------------------------| |-------------------------------------------|-------------------------------------------| |-------------------------------------------|-------------------------------------------| |-------------------------------------------|--2----------------------------------------| |--5-------------------4h===7---------------|--2-------------------5h===7---------------| |--0--------0----0-----0----------0----0----|--0--------0----0-----0----------0----0----| Dsus2/E C#m/E E5 C5 |--3--| |---3---| |---3---| |--3--| |---3---| E E E E E E E E E E E E Q +Q Q +E E E |-17p12----17p12------16p12------16p12----|---------------------------------------| |-------12---------12---------12-------12-|-15b17===(15)r--15b17===(15)r-12-------| |-----------------------------------------|---------------------------------14----| |-----------------------------------------|---------------------------------------| |-----------------------------------------|---------------------------------------| |-----------------------------------------|---------------------------------------| | | PM---| | Q E E E E Q W |-----------------------------------------|---------------------------------------| |-----------------------------------------|---------------------------------------| |-----------------------------------------|--5------------------------------------| |-----------------------------------------|--5------------------------------------| |--5-------------------4h===7-----2-------|--3------------------------------------| |--0--------0----0-----0----------0-------|---------------------------------------| C5 D5 ~~~~~~~~~~~~ |--3--| E E S S E +Q E E E |--------------------------------------| |-12-15-12h15-15b17==(15)r----15-14----| |-----------------------------------12-| |--------------------------------------| |--------------------------------------| |--------------------------------------| | | H +E Q. |--------------------------------------| |--------------------------------------| |--5------------------(5)--7-----------| |--5------------------(5)--7-----------| |--3------------------(3)--5-----------| |--------------------------------------| C5 ~~~~~~~~~~~ ~~~~~~~~~~~~~~~~~~~ |3-| |--3---| Q E +Q E E E E E E E E E +Q +Q |----15b17==(15)--15r-12----------|--------------------------------| |-12---------------------15-12----|--------------------------------| |------------------------------14-|-12-----12-14b16==(14)--(14)r--| |---------------------------------|-----14-------------------------| |---------------------------------|--------------------------------| |---------------------------------|--------------------------------| | | W +W |---------------------------------|--------------------------------| |---------------------------------|--------------------------------| |--5------------------------------|-(5)----------------------------| |--5------------------------------|-(5)----------------------------| |--3------------------------------|-(3)----------------------------| |---------------------------------|--------------------------------| E5 Dsus2/E Dsus2/E C#m/E PM--------------------------------- E E E E E E E E E E E E E E E E |-----------------|-----------------| |-----------------|-----------------| |-----------------|-----7-5-4-7-7-5-| |-9-----5-4---7-5-|-9-7-------------| |---7-7-----5-----|-----------------| |-----------------|-----------------| | | PM| PM| PM| PM| | Q E E E E E E Q E E E E E E |-----------------|-----------------| |-----------------|-----------------| |-----------------|-----------------| |-2---------------|-----------------| |-2-------5h7-----|-5-------4h7-----| |-0---0-0-0---0-0-|-0---0-0-0---0-0-| E5 Dsus2/E Dsus2/E C#m/EE5 ---------------| E E E E E E E E E E E E Q +Q |-------------7----|------------17---(17)--| |-------7-------10-|---17-15-14-------------| |-9-7-7---9-7------|------------------------| |------------------|------------------------| |------------------|------------------------| |------------------|------------------------| | | PM| PM| PM| | Q E E E E E E Q E E E E Q |------------------|------------------------| |------------------|------------------------| |------------------|------------------------| |-2----------------|------------------------| |-2-------5h7------|-5-----------4h7---2----| |-0---0-0-0---0--0-|-0-----0--0--0-----0----| Q E E E Q E E Q E E E E E |-----------------------|------------12----------| |------------13---------|-15---------------------| |-/12--12-12----12---12-|----12---12----12-12-12-| |-----------------------|------------------------| |-----------------------|------------------------| |-----------------------|------------------------| | | Q E E E E E E E E E E E E E E |-----------------------|------------------------| |-----------------------|------------------------| |-----------------------|------------------------| |-----------------------|------------------------| |------------10p=7------|-10p=7------10p=7-------| |--/8---8--8-------8--8-|-------8--8--------8--8-| C Q E E E Q E E Q E Q +E +E |----------------------|------------15b17====(15)r(15)-| |-----------13---------|-15----------------------------| |-12--12-12----12---12-|----12---12--------------------| |----------------------|-------------------------------| |----------------------|-------------------------------| |----------------------|-------------------------------| | | Q E E E E E E E E E E E E E E |----------------------|-------------------------------| |----------------------|-------------------------------| |----------------------|-------------------------------| |----------------------|-------------------------------| |--7--------10p=7------|-10p=7------10p====7-----------| |--8---8--8-------8--8-|-------8--8------------8----8--| E5 Dsus2/E C#m/E |--3--| |---3---| |---3---| |---3---| |--3--| |---3---| |---3---| |---3---| E E E E E E E E E E E E E E E E E E E E E a E E E |-15-12----12-------------------------------|-------------------------------------------12-| |-------15----15---12-15-12------12------12-|-15-12----------------------------------------| |-----------------------------14----14------|-------14-12------12-14-12---14-12h14p12------| |-------------------------------------------|-------------14-------------------------------| |-------------------------------------------|----------------------------------------------| |-------------------------------------------|----------------------------------------------| | | PM---| PM---| PM---| PM---| | Q E E E E E E Q E E E E E E |-------------------------------------------|----------------------------------------------| |-------------------------------------------|----------------------------------------------| |-------------------------------------------|----------------------------------------------| |--2----------------------------------------|----------------------------------------------| |--2-------------------5h===7---------------|--5-------------------4h===7------------------| |--0--------0----0-----0----------0----0----|--0--------0----0-----0-------------0----0----| E5 Dsus2/E C#m/EE5 ~~~ |--3--| |---3---| |---3---| |---3---| |-----3------| E E E E E E E E E E E E Q Q Q H |-15p12-------------------------------------|----------------------------| |-------15-12------12-15-12-----------------|----------------------------| |-------------14--------------14-12------12-|-14b16==14r---12------------| |-----------------------------------14------|-------------------14-------| |-------------------------------------------|----------------------------| |-------------------------------------------|----------------------------| | | PM---| PM---| PM---| | Q E E E E E E Q E E E E Q |-------------------------------------------|----------------------------| |-------------------------------------------|----------------------------| |-------------------------------------------|----------------------------| |--2----------------------------------------|----------------------------| |--2-------------------5h===7---------------|--5-----------------4h7-2---| |--0--------0----0-----0----------0----0----|--0---------0----0--0---0---| Q E E E Q E E Q E E E E E |-----------------------|------------12----------| |------------13---------|-15---------------------| |-/12--12-12----12---12-|----12---12----12-12-12-| |-----------------------|------------------------| |-----------------------|------------------------| |-----------------------|------------------------| | | Q E E E E E E E E E E E E E E |-----------------------|------------------------| |-----------------------|------------------------| |-----------------------|------------------------| |-----------------------|------------------------| |------------10p=7------|-10p=7------10p=7-------| |--/8---8--8-------8--8-|-------8--8--------8--8-| C Q E E E Q E E Q E Q +E +E |----------------------|------------15b17====(15)r(15)-| |-----------13---------|-15----------------------------| |-12--12-12----12---12-|----12---12--------------------| |----------------------|-------------------------------| |----------------------|-------------------------------| |----------------------|-------------------------------| | | Q E E E E E E E E E E E E E E |----------------------|-------------------------------| |----------------------|-------------------------------| |----------------------|-------------------------------| |----------------------|-------------------------------| |--7--------10p=7------|-10p=7------10p====7-----------| |--8---8--8-------8--8-|-------8--8------------8----8--| E5 Dsus2/E C#m/E |--3--| |---3---| |---3---| |---3---| |--3--| |---3---| |---3---| |---3---| E E E E E E E E E E E E E E E E E E E E E E E E |-15-12----12----------------------------14-|-17-15-14-15-14------14--------------------| |-------15----15---12-15-12------12---------|------------------17----17---15-17-15---14-| |-----------------------------14----14------|-------------------------------------------| |-------------------------------------------|-------------------------------------------| |-------------------------------------------|-------------------------------------------| |-------------------------------------------|-------------------------------------------| | | PM---| PM---| PM---| PM---| | Q E E E E E E Q E E E E E E |-------------------------------------------|-------------------------------------------| |-------------------------------------------|-------------------------------------------| |-------------------------------------------|-------------------------------------------| |--2----------------------------------------|-------------------------------------------| |--2-------------------5h===7---------------|--5-------------------4h===7---------------| |--0--------0----0-----0----------0----0----|--0--------0----0-----0----------0----0----| E5 Dsus2/E C#m/E E5 |--3--| |---3---| |---3---| |---3---| |--3--| |---3---| E E E E E E E E E E E E E E E E E E E +E E +E |-19-17-15------------21-19---17------------|-22-21-19------------22b24==(22)r-22b24==(22)r-| |----------19-17---16------------21-19---17-|----------22-21---19---------------------------| |-------------------------------------------|-----------------------------------------------| |-------------------------------------------|-----------------------------------------------| |-------------------------------------------|-----------------------------------------------| |-------------------------------------------|-----------------------------------------------| | | PM---| PM---| PM---| | Q E E E E E E Q E E E E Q |-------------------------------------------|-----------------------------------------------| |-------------------------------------------|-----------------------------------------------| |-------------------------------------------|-----------------------------------------------| |--2----------------------------------------|-----------------------------------------------| |--2-------------------5h===7---------------|--5-------------------4h======7----2-----------| |--0--------0----0-----0----------0----0----|--0--------0----0-----0------------0-----------| E5 Dsus2/E Gtr III ~~~~~~~~~~~~~~~~~ E +S +S Q H |-22b24==(22)-(22)r-------------| |-------------------------------| |-------------------------------| |-------------------------------| |-------------------------------| |-------------------------------| | | Gtrs I, II | PM| PM| | Q E E E E E E |-------------------------------| |-------------------------------| |-------------------------------| |--2----------------------------| |--2--------------------5h7-----| |--0----------------0-0-0---0-0-| C#m/E E5 Dsus2/E C#m/E5 W W W |----------------|----------------|---------------| |----------------|----------------|---------------| |----------------|----------------|---------------| |----------------|----------------|---------------| |----------------|----------------|---------------| |----------------|----------------|---------------| | | PM| PM| PM| PM| PM| | Q E E E E E E Q E E E E E E Q E E E E Q |----------------|----------------|---------------| |----------------|----------------|---------------| |----------------|----------------|---------------| |----------------|-2--------------|---------------| |-5------4h7-----|-2------5h7-----|-5------4h7-2--| |-0--0-0-0---0-0-|-0--0-0-0---0-0-|-0--0-0-0---0--| E5 Dsus2/E C#m/E E5 Dsus2/E C#m/E5 Gtrs I, II PM| PM| PM| PM| PM| PM| PM| Q E E E E E E Q E E E E E E Q E E E E E E Q E E E E Q |----------------|----------------|----------------|---------------| |----------------|----------------|----------------|---------------| |----------------|----------------|----------------|---------------| |-2--------------|----------------|-2--------------|---------------| |-2------5h7-----|-5------4h7-----|-2------5h7-----|-5------4h7-2--| |-0--0-0-0---0-0-|-0--0-0-0---0-0-|-0--0-0-0---0-0-|-0--0-0-0---0--| E5 Dsus2/E C#m/E E5 Dsus2/E C#m/E5 PM| PM| PM| PM| PM| PM| PM| Q E E E E E E Q E E E E E E Q E E E E E E Q E E E E Q |----------------|----------------|----------------|---------------| |----------------|----------------|----------------|---------------| |----------------|----------------|----------------|---------------| |-2--------------|----------------|-2--------------|---------------| |-2------5h7-----|-5------4h7-----|-2------5h7-----|-5------4h7-2--| |-0--0-0-0---0-0-|-0--0-0-0---0-0-|-0--0-0-0---0-0-|-0--0-0-0---0--| E5 Dsus2/E C#m/E E5 Dsus2/E C#m/E5 PM| PM| PM| PM| PM| PM| PM| Q E E E E E E Q E E E E E E Q E E E E E E Q E E E E Q |----------------|----------------|----------------|---------------| |----------------|----------------|----------------|---------------| |----------------|----------------|----------------|---------------| |-2--------------|----------------|-2--------------|---------------| |-2------5h7-----|-5------4h7-----|-2------5h7-----|-5------4h7-2--| |-0--0-0-0---0-0-|-0--0-0-0---0-0-|-0--0-0-0---0-0-|-0--0-0-0---0--| 7/8 4/4 PM------------| PM------------| E S S E E E E E E E Q H W E E E E E E E E |-----------------|-------------|----------|------------------| |-----------------|-------------|----------|------------------| |-----------------|-------------|----------|------------------| |-----------------|-------------|----------|------------------| |-----------------|-------------|----------|------------------| |-0-0-0-0-0-0-0-0-|-0-----------|----------|-3-3-3-3-3-3-3-3--| C#5 PM------------| PM------| PM--------| E E E E E E E E E S S S S S S E S S S S S S |-----------------||------------------------------| |-----------------||o-----------------------------| |-----------------||------------------------------| |-----------------||--6---------------------------| |-----------------||o-4-4-4-4-4-4-4-4-4-4-4-4-4-4-| |-3-3-3-3-3-3-3-3-||------------------------------| C#5 PM--------| PM--------| E S S S S S S E S S S S S S 3x E E E E E E E E |------------------------------||-----------------| |-----------------------------o||-----------------| |------------------------------||-----------------| |-6----------------------------||---5p4---4p2-----| |-4-4-4-4-4-4-4-4-4-4-4-4-4-4-o||-0-----0-----5-4-| |------------------------------||-----------------| D.S. al Coda & G5F#E5D5C#B5 C#C5C#D5 Eb5 G5 |-3-| |-3-| |-3-| Q Q Q Q Q Q Q Q Q Q Q E S S E E E E E E |--------------||-------------|-------------------| |--------------||-------------|-------------------| |-------7-6-4--||-6-5-6-7--8--|-------------------| |-5-4-2-7-6-4--||-6-5-6-7--8--|-----------------5-| |-5-4-2-5-4-2--||-4-3-4-5--6--|-----------------5-| |-3-2-0--------||-------------|-0-0-0-0-0-0-0-0-3-| Bb5F#5 A5 F5 +H +E Q E +H +E Q E |-----------------|------------------| |-----------------|------------------| |-----------------|------------------| |-(5)----(5)-8--4-|-(4)----(4)-7--3--| |-(5)----(5)-8--4-|-(4)----(4)-7--3--| |-(3)----(3)-6--2-|-(2)----(2)-5--1--| G5 G5 Bb5F#5 A5 F5 +H +E Q. E S S E E E E E E +H +E Q E +H +E Q E |-----------------|-------------------|-----------------|-----------------| |-----------------|-------------------|-----------------|-----------------| |-----------------|-------------------|-----------------|-----------------| |-(3)----(3)-5----|-----------------5-|-(5)----(5)-8--4-|-(4)----(4)-7--3-| |-(3)----(3)-5----|-----------------5-|-(5)----(5)-8--4-|-(4)----(4)-7--3-| |-(1)----(1)-3----|-0-0-0-0-0-0-0-0-3-|-(3)----(3)-6--2-|-(2)----(2)-5--1-| G5 G5 Bb5F#5 A5 F5 +H +E Q. E S S E E E E E E +H +E Q E +H +E Q E |-----------------|-------------------|-----------------|-----------------| |-----------------|-------------------|-----------------|-----------------| |-----------------|-------------------|-----------------|-----------------| |-(3)----(3)-5----|-----------------5-|-(5)----(5)-8--4-|-(4)----(4)-7--3-| |-(3)----(3)-5----|-----------------5-|-(5)----(5)-8--4-|-(4)----(4)-7--3-| |-(1)----(1)-3----|-0-0-0-0-0-0-0-0-3-|-(3)----(3)-6--2-|-(2)----(2)-5--1-| G5 G5 Bb5F#5 A5 F5 +H +E Q. E S S E E E E E E +H +E Q E +H +E Q E |-----------------|-------------------|-----------------|-----------------| |-----------------|-------------------|-----------------|-----------------| |-----------------|-------------------|-----------------|-----------------| |-(3)----(3)-5----|-----------------5-|-(5)----(5)-8--4-|-(4)----(4)-7--3-| |-(3)----(3)-5----|-----------------5-|-(5)----(5)-8--4-|-(4)----(4)-7--3-| |-(1)----(1)-3----|-0-0-0-0-0-0-0-0-3-|-(3)----(3)-6--2-|-(2)----(2)-5--1-| G5 G5 Gtr III H Q E E +H +E Q E |-------------------|------------------------| |-----------------8-|-(8)---------(8)S11S==7-| |-------------------|------------------------| |-------------------|------------------------| |-------------------|------------------------| |-------------------|------------------------| | | Gtrs I, II | +H +E Q. E S S E E E E E E |-------------------|------------------------| |-------------------|------------------------| |-------------------|------------------------| |-(3)----(3)-5------|----------------------5-| |-(3)----(3)-5------|----------------------5-| |-(1)----(1)-3------|--0--0-0-0-0--0---0-0-3-| Bb5 F#5 A5 F5 +H +E Q E +H +E Q. |------------------|------------------| |-(7)----(7)S10S=6-|-(6)----(6)S8-----| |------------------|------------------| |------------------|------------------| |------------------|------------------| |------------------|------------------| | | +H +E Q E +H +E Q E |------------------|------------------| |------------------|------------------| |------------------|------------------| |-(5)----(5)--8--4-|-(4)----(4)-7---3-| |-(5)----(5)--8--4-|-(4)----(4)-7---3-| |-(3)----(3)--6--2-|-(2)----(2)-5---1-| G5 G5 H +Q. E +H +E Q E |------------------|------------------------| |--5-----(5)-----8-|-(8)---------(8)S11S==7-| |------------------|------------------------| |------------------|------------------------| |------------------|------------------------| |------------------|------------------------| | | +H +E Q. E S S E E E E E E |------------------|------------------------| |------------------|------------------------| |------------------|------------------------| |-(3)----(3)-5-----|----------------------5-| |-(3)----(3)-5-----|----------------------5-| |-(1)----(1)-3-----|--0--0-0-0-0--0---0-0-3-| Bb5 F#5 A5 F5 +H +E Q E +H +E Q. |------------------|------------------| |-(7)----(7)S10S=6-|-(6)----(6)S8-----| |------------------|------------------| |------------------|------------------| |------------------|------------------| |------------------|------------------| | | +H +E Q E +H +E Q E |------------------|------------------| |------------------|------------------| |------------------|------------------| |-(5)----(5)--8--4-|-(4)----(4)-7---3-| |-(5)----(5)--8--4-|-(4)----(4)-7---3-| |-(3)----(3)--6--2-|-(2)----(2)-5---1-| G5 H +Q. E +H +E Q E |----------------6-|-(6)---------(6)S=9S==5-| |--5-----(5)-----8-|-(8)---------(8)S11S==7-| |------------------|------------------------| |------------------|------------------------| |------------------|------------------------| |------------------|------------------------| | | +H +E Q. E S S E E E E E E |------------------|------------------------| |------------------|------------------------| |------------------|------------------------| |-(3)----(3)-5-----|----------------------5-| |-(3)----(3)-5-----|----------------------5-| |-(1)----(1)-3-----|--0--0-0-0-0--0---0-0-3-| Bb5 F#5 A5 F5 +H +E Q E +H +E Q. |-(5)----(5)S=8S=4-|-(4)----(4)-6-----| |-(7)----(7)S10S=6-|-(6)----(6)S8-----| |------------------|------------------| |------------------|------------------| |------------------|------------------| |------------------|------------------| | | +H +E Q E +H +E Q E |------------------|------------------| |------------------|------------------| |------------------|------------------| |-(5)----(5)--8--4-|-(4)----(4)-7---3-| |-(5)----(5)--8--4-|-(4)----(4)-7---3-| |-(3)----(3)--6--2-|-(2)----(2)-5---1-| G5 H +Q. E +H +E Q E |--3-----(3)-----6-|-(6)---------(6)S=9S==5-| |--5-----(5)-----8-|-(8)---------(8)S11S==7-| |------------------|------------------------| |------------------|------------------------| |------------------|------------------------| |------------------|------------------------| | | +H +E Q. E S S E E E E E E |------------------|------------------------| |------------------|------------------------| |------------------|------------------------| |-(3)----(3)-5-----|----------------------5-| |-(3)----(3)-5-----|----------------------5-| |-(1)----(1)-3-----|--0--0-0-0-0--0---0-0-3-| Bb5 F#5 A5 F5 +H +E Q E +H +E Q. |-(5)----(5)S=8S=4-|-(4)----(4)-6-----| |-(7)----(7)S10S=6-|-(6)----(6)S8-----| |------------------|------------------| |------------------|------------------| |------------------|------------------| |------------------|------------------| | | +H +E Q E +H +E Q E |------------------|------------------| |------------------|------------------| |------------------|------------------| |-(5)----(5)--8--4-|-(4)----(4)-7---3-| |-(5)----(5)--8--4-|-(4)----(4)-7---3-| |-(3)----(3)--6--2-|-(2)----(2)-5---1-| C#5 7/8 4/4 Gtrs I, II PM------| PM--------| E S S E E E E E E S S S S S S E S S S S S S |-----------------||------------------------------| |-----------------||o-----------------------------| |-----------------||------------------------------| |-----------------||--6---------------------------| |-----------------||o-4-4-4-4-4-4-4-4-4-4-4-4-4-4-| |-0-0-0-0-0-0-0-0-||------------------------------| C#5 C#5 PM--------| PM--------| PM--------| PM--------| E S S S S S S E S S S S S S E S S S S S S E S S S S S S |-----------------------------|-------------------------------| |-----------------------------|-------------------------------| |-----------------------------|-------------------------------| |-6---------------------------|-6-----------------------------| |-4-4-4-4-4-4-4-4-4-4-4-4-4-4-|-4-4-4-4-4-4-4-4-4-4-4-4-4-4---| |-----------------------------|-------------------------------| 1. 2. D5 PM PM------| PM| PM------| PM--------| E E E E E E E E E E E E E E E E E S S S S S S E S S S S S S |------------------||-----------------|-----------------------------| |-----------------o||-----------------|-----------------------------| |------------------||-----------------|-----------------------------| |---5p4---4p2------||---5p4---4p2-----|-7---------------------------| |-0-----0-----5-4-o||-0-----0-----5-4-|-5-5-5-5-5-5-5-5-5-5-5-5-5-5-| |------------------||-----------------|-----------------------------| D5 D5 PM--------| PM--------| PM--------| PM--------| E S S S S S S E S S S S S S E S S S S S S E S S S S S S |-----------------------------|-------------------------------| |-----------------------------|-------------------------------| |-----------------------------|-------------------------------| |-7---------------------------|-7-----------------------------| |-5-5-5-5-5-5-5-5-5-5-5-5-5-5-|-5-5-5-5-5-5-5-5-5-5-5-5-5-5---| |-----------------------------|-------------------------------| C#5 PM PM| PM------| PM--------| E E E E E E E E E S S S S S S E S S S S S S |-----------------|-----------------------------| |-----------------|-----------------------------| |-----------------|-----------------------------| |---5p4---4p2-----|-6---------------------------| |-0-----0-----5-4-|-4-4-4-4-4-4-4-4-4-4-4-4-4-4-| |-----------------|-----------------------------| C#5 C#5 PM--------| PM--------| PM--------| PM--------| E S S S S S S E S S S S S S E S S S S S S E S S S S S S |-----------------------------|------------------------------| |-----------------------------|------------------------------| |-----------------------------|------------------------------| |-6---------------------------|-6----------------------------| |-4-4-4-4-4-4-4-4-4-4-4-4-4-4-|-4-4-4-4-4-4-4-4-4-4-4-4-4-4--| |-----------------------------|------------------------------| G5F#E5D5C#B5 C#5 PM PM| |-3-| |-3-| E E E E E E E E Q Q Q Q Q Q H H H H |-----------------|-------------|-----------|-----------| |-----------------|-------------|-----------|-----------| |-----------------|-------7-6-4-|-6----6----|-6----6----| |---5p4---4p2-----|-5-4-2-7-6-4-|-6----6----|-6----6----| |-0-----0-----5-4-|-5-4-2-5-4-2-|-4----4----|-4----4----| |-----------------|-3-2-0-------|-----------|-----------| C#5 PM------| PM--------| W +W E S S S S S S E S S S S S S |----------|------------|-----------------------------| |----------|------------|-----------------------------| |-6--------|-(6)--------|-----------------------------| |-6--------|-(6)--------|-6---------------------------| |-4--------|-(4)--------|-4-4-4-4-4-4-4-4-4-4-4-4-4-4-| |----------|------------|-----------------------------| C#5 C#5 PM--------| PM--------| PM--------| PM--------| E S S S S S S E S S S S S S E S S S S S S E S S S S S S |-----------------------------|-------------------------------| |-----------------------------|-------------------------------| |-----------------------------|-------------------------------| |-6---------------------------|-6-----------------------------| |-4-4-4-4-4-4-4-4-4-4-4-4-4-4-|-4-4-4-4-4-4-4-4-4-4-4-4-4-4---| |-----------------------------|-------------------------------| G5F#E5D5C#B5 C#5 PM PM| |-3-| |-3-| E E E E E E E E Q Q Q Q Q Q H +Q Q |-----------------|-------------|---------------*| |-----------------|-------------|---------------*| |---4p2p0-4p0-----|-------7-6-4-|-6----(6)-----*| |---5p4---4p2-4-2-|-5-4-2-7-6-4-|-6----(6)-----*| |-0-----0-----5-4-|-5-4-2-5-4-2-|-4----(4)-----*| |-----------------|-3-2-0-------|---------------*| Duration Legend --------------- W - whole; H - half; Q - quarter; E - 8th; S - 16th; T - 32nd; X - 64th; a - acciaccatura + - note tied to previous; . - note dotted; .. - note double dotted Uncapitalized letters represent notes that are staccato (1/2 duration) Irregular groupings are notated above the duration line Duration letters will always appear directly above the note/fret number it represents the duration for. Duration letters with no fret number below them represent rests. Multi- bar rests are notated in the form Wxn, where n is the number of bars to rest for. Low melody durations appear below the staff Tablature Legend ---------------- h - hammer-on p - pull-off b - bend pb - pre-bend r - bend release (if no number after the r, then release immediately) / - slide into or out of (from/to "nowhere") s - legato slide S - shift slide - natural harmonic [n] - artificial harmonic n(n) - tapped harmonic ~ - vibrato tr - trill T - tap TP - trem. picking PM - palm muting n/ - tremolo bar dip; n = amount to dip n - tremolo bar down n/ - tremolo bar up /n - tremolo bar inverted dip = - hold bend; also acts as connecting device for hammers/pulls <> - volume swell (louder/softer) x - on rhythm slash represents muted slash o - on rhythm slash represents single note slash Misc Legend ----------- | - bar || - double bar ||o - repeat start o|| - repeat end *| - double bar (ending) : - bar (freetime) $ - Segno & - Coda Tempo markers - = BPM(8/16=s8/s16), where s8 = swing 8ths, s16 = swing 16ths *************************************************************************************** * Generated using Power Tab Editor by Brad Larsen - http://powertab.guitarnetwork.org * ***************************************************************************************

    http://www.powertabs.net
    искать в аптеке
    список лекарств






    О сайтеАккордыХит-парадПоискУроки ФорумыИщу песню
    ПрограммыСвежачок-сПодпискаСтатьи
    Яндекс.Метрика