Табулатура Muse | Hyper Music гитара табулатуры уроки тексты песен Muse текст lyrics песня аккорды песни ноты нота электрогитара струна  
   А Б В Г Д Е Ж З И К Л М Н О П Р С Т У Ф Х Ч Ш Ы Э Ю Я       Разные песни
1-9 A B C D E F G H I J K L M N O P Q R S T U V W Y Z      Все исполнители in english

    



группа Muse, Табулатура песни Hyper Music

Группа: Muse - другие аккорды (28),   о группе (3 статей),   диски (3),   фотографии (45)
Табулатура песни: Hyper Music
Просмотров: 1298
Подобрал: streamline (streamline86@mail.ru)




    
------------------------------------------------------------------------------
----6----6--------------------------------------------------------------------
----5----5--5-4-3-------------------------------------------------------------
----4----4--------------------------------------------------------------------
-5--5--5-5--------------------------------------------------------------------
-0-----0----------------------------------------------------------------------

------------------------------------------------------------------------------
----6----6------------6----6--------------------------------------------------
----5----5------------5----5--------------------------------------------------
----4----4------------4----4--------------------------------------------------
-5--5--5-5----3-5--5--5--5-5--3-2-1-------------------------------------------
-0-----0----5------0-----0----------------------------------------------------

-10-10-10-10-10-10-10-10-10-10-10-10-10-10-10-10------------------------------
-10-10-10-10-10-10-10-10-10-10-10-10-10-10-10-10------------------------------
-10-10-10-10-10-10-10-10-10-10-10-10-10-10-10-10------------------------------
-12-12-12-12-12-12-12-12-12-12-12-12-12-12-12-12------------------------------
------------------------------------------------------------------------------
------------------------------------------------------------------------------

-12-12-12-12-12-12-12-12-12-12-12-12-12-12-12-12------------------------------
-13-13-13-13-13-13-13-13-13-13-13-13-13-13-13-13------------------------------

Продолжаем грести бабос на ботах в Telegram.
Только в этот раз есть вариант автоматизировать это дело, привлекая рефералов. Вы можете заработать если »

-14-14-14-14-14-14-14-14-14-14-14-14-14-14-14-14------------------------------ ------------------------------------------------------------------------------ ------------------------------------------------------------------------------ ------------------------------------------------------------------------------ -10-10-10-10-10-10-10-10-10-10-10-10-10-10-10-10------------------------------ -12-12-12-12-12-12-12-12-12-12-12-12-12-12-12-12------------------------------ -12-12-12-12-12-12-12-12-12-12-12-12-12-12-12-12------------------------------ ------------------------------------------------------------------------------ ------------------------------------------------------------------------------ ------------------------------------------------------------------------------ -10-10-10-10-10-10-10-10-10-10-10-10-10-10-10-10------------------------------ -11-11-11-11-11-11-11-11-11-11-11-11-11-11-11-11------------------------------ -12-12-12-12-12-12-12-12-12-12-12-12-12-12-12-12------------------------------ ------------------------------------------------------------------------------ ------------------------------------------------------------------------------ ------------------------------------------------------------------------------








О сайтеАккордыХит-парадПоискУроки ФорумыИщу песню
ПрограммыСвежачок-сПодпискаСтатьи
Яндекс.Метрика