Табулатура Muse | Space Dementia гитара табулатуры уроки тексты песен Muse текст lyrics песня аккорды песни ноты нота электрогитара струна  
   А Б В Г Д Е Ж З И К Л М Н О П Р С Т У Ф Х Ч Ш Ы Э Ю Я       Разные песни
1-9 A B C D E F G H I J K L M N O P Q R S T U V W Y Z      Все исполнители in english

    



группа Muse, Табулатура песни Space Dementia

Группа: Muse - другие аккорды (28),   о группе (3 статей),   диски (3),   фотографии (45)
Табулатура песни: Space Dementia
Просмотров: 1558
Подобрал: streamline (streamline86@mail.ru)




    
Вступление Intro:(reverb)
1|-0--0--2--2--0--0--2---2--0-----------------------------------
2|-0--1--2--4--0--1--2---2--1-----------------------------------
3|-0--0--3--2--0--0--3---3--0-----------------------------------
4|-2--2--4--4--2--2--2---3--2-----------------------------------
5|-2--3--4--2--2--3--4---4--3-----------------------------------
6|-0--3--2--x--0--3--2---2--3-----------------------------------

Куплет Verse 1:(clean)   
1|--0------------------x----------------------------------------
2|--0------------------1----------------------------------------
3|--0------------------2----------------------------------------
4|--4------------------4----------------------------------------
5|--2------------------x----------------------------------------
6|--0------------------x----------------------------------------
   Mmm, Height is the one for me   
1|--------------0-----------------------------------------------
2|--------------0-----------------------------------------------
3|--------------0-----------------------------------------------
4|--------------2-----------------------------------------------
5|--------------2-----------------------------------------------
6|--------------3-----------------------------------------------
   It gives me all I need
1|----------0----------------------2-----2-----2-------2--------
2|----------1----------------------3-----2-----3-------0--------
3|----------2----------------------4-----3-----4-------2--------
4|----------2----------------------4-----4-----4-------1--------
5|----------0----------------------2-----4-----2-------x--------
6|----------x----------------------x-----2-----x-------x--------
   Helps me co-exist with the chill              
Ooh

Куплет Verse 2:
1|-0------------------------------------------------------------
2|-0------------------------------------------------------------
3|-0------------------------------------------------------------
4|-4------------------------------------------------------------
5|-2------------------------------------------------------------
6|-0------------------------------------------------------------
   You make me sick 
1|------------x-------------------------------------------------
2|------------1-------------------------------------------------
3|------------2-------------------------------------------------
4|------------4-------------------------------------------------
5|------------x-------------------------------------------------
6|------------x-------------------------------------------------
   Because I adore you so
1|----------------0---------------------------------------------
2|----------------0---------------------------------------------
3|----------------0---------------------------------------------
4|----------------2---------------------------------------------
5|----------------2---------------------------------------------
6|----------------3---------------------------------------------
   I love all the dirty tricks 
1|-------------0------------------2-----2-----2----2------------
2|-------------1------------------3-----2-----3----0------------
3|-------------2------------------4-----3-----4----2------------
4|-------------2------------------4-----4-----4----1------------
5|-------------0------------------2-----4-----2----x------------
6|-------------x------------------x-----2-----x----x------------
   and twisted games you play on me              
 Ooh

Припев Chorus 1
1|-0--x--1--x--0--2---------------------------------------------
2|-0--4--3--2--1--4---------------------------------------------
3|-0--4--2--2--2--2---------------------------------------------
4|-2--4--0--2--2--4---------------------------------------------
5|-2--2--x--4--3--2---------------------------------------------

Продолжаем грести бабос на ботах в Telegram.
Только в этот раз есть вариант автоматизировать это дело, привлекая рефералов. Вы можете заработать если »

6|-0--x--x--x--x--x--------------------------------------------- 1|-0-----0----0---------2----2---------------------------------- 2|-0-----0----2---------2----3---------------------------------- 3|-1-----2----0---------2----4---------------------------------- 4|-2-----2----2---------2----4---------------------------------- 5|-2-----0----0---------0----2---------------------------------- 6|-0-----0----x---------x----x---------------------------------- Space de meneia in your eyes 1|-1---1-----------0----2--------x--x--------------------------- 2|-3---0-----------1----2--------4--3--------------------------- 3|-2---0-----------0----3--------4--2--------------------------- 4|-0---0-----------2----2--------4--0--------------------------- 5|-x---2-----------3----4--------2--x--------------------------- 6|-x---3-----------3----2--------x--x--------------------------- and peace will arise and tear us apart 1|-0--------------1------2----------x---2----------------------- 2|-0--------------1------2----------x---4----------------------- 3|-1--------------2------3----------4---2----------------------- 4|-2--------------3------2----------4---4----------------------- 5|-2--------------3------4----------2---2----------------------- 6|-0--------------1------2----------x---x----------------------- and make us meaningless again Куплет Verse 3: 1|-0------------------------------------------------------------ 2|-0------------------------------------------------------------ 3|-0------------------------------------------------------------ 4|-4------------------------------------------------------------ 5|-2------------------------------------------------------------ 6|-0------------------------------------------------------------ You´ll make us wanna die 1|--------------x----------------------------------------------- 2|--------------1----------------------------------------------- 3|--------------2----------------------------------------------- 4|--------------4----------------------------------------------- 5|--------------x----------------------------------------------- 6|--------------x----------------------------------------------- I´d cut your name in my heart 1|--------------------0----------------------------------------- 2|--------------------0----------------------------------------- 3|--------------------0----------------------------------------- 4|--------------------2----------------------------------------- 5|--------------------2----------------------------------------- 6|--------------------3----------------------------------------- We´ll destroy this world for you 1|------------0------------------------------------------------- 2|------------1------------------------------------------------- 3|------------2------------------------------------------------- 4|------------2------------------------------------------------- 5|------------0------------------------------------------------- 6|------------x------------------------------------------------- I know you want me to 1|-----------2-------2------2------2---------------------------- 2|-----------3-------2------3------0---------------------------- 3|-----------4-------3------4------2---------------------------- 4|-----------4-------4------4------1---------------------------- 5|-----------2-------4------2------x---------------------------- 6|-----------x-------2------x------x---------------------------- Feel your pain Припев chorus 1 Завершение Outro: 1|-0--0--2--2--0--0--2--x--0------------------------------------ 2|-0--1--2--4--0--1--2--4--0------------------------------------ 3|-0--0--3--2--0--0--3--4--0------------------------------------ 4|-2--2--2--4--2--2--2--4--2------------------------------------ 5|-2--3--4--2--2--3--4--2--2------------------------------------ 6|-0--3--2--x--0--3--2--x--0------------------------------------








О сайтеАккордыХит-парадПоискУроки ФорумыИщу песню
ПрограммыСвежачок-сПодпискаСтатьи
Яндекс.Метрика