Табулатура Metallica | Dyers Eve  (2) гитара табулатуры уроки тексты песен Metallica текст lyrics песня аккорды песни ноты нота электрогитара струна  
   А Б В Г Д Е Ж З И К Л М Н О П Р С Т У Ф Х Ч Ш Ы Э Ю Я       Разные песни
1-9 A B C D E F G H I J K L M N O P Q R S T U V W Y Z      Все исполнители in english

    



группа Metallica, Табулатура песни Dyers Eve (2)

Работа в Европе для граждан РФ, Украины, СНГ

  • минимальная зарплата $500.
  • виза и контракт на полгода, возможно продление
  • проживание оплачивает работодатель
  • нужен только загранпаспорт
  • оформление 190 €
  • данное предложение - отличная возможность эмигрировать в Европу и закрепиться здесь навсегда.

  • Мы свяжемся с Вами по WhatsApp или Viber и ответим на любые вопросы.
    на нашем сайте можно почитать подробнее »

    Группа: Metallica - другие аккорды (225),   о группе (32 статей),   диски (11),   фотографии (49)
    Табулатура песни: Dyers Eve (2)
    Просмотров: 3533
    Прислал: DiaSpar (diaspar@i.com.ua)




        
    #----------------------------------PLEASE NOTE---------------------------------#
    #This file is the author's own work and represents their interpretation of the #
    #song. You may only use this file for private study, scholarship, or research. #
    #------------------------------------------------------------------------------##
                                        DYERS EVE
                                As recorded by Metallica
                      (From the 1988 Album ...AND JUSTICE FOR ALL)
    Words and Music by James Hetfield, Lars Ulrich, and Kirk Hammett
             B5VII                 E5                   F#5                  G5
          7 9 9 x x x          0 2 2 x x x          2 4 4 x x x          3 5 5 x x x
              A5                   B5                   C5                   D5
          5 7 7 x x x          x 2 4 4 x x          x 3 5 5 x x          x 5 7 7 x x
              F5                   A6                   E6                   D6
          1 3 3 x x x          x 0 4 x x x          0 4 x x x x          x x 0 4 x x
    Gtr I (E A D G B E) - 'Rhythm (James/Kirk)'
    Gtr II (E A D G B E) - 'Lead (Kirk)'
    Gtr III (E A D G B E) - 'Muted Guitar (For Sound Only)'
     Intro (Half Time Feel)
      Moderate Rock Q.=102
      N.C.              E5     F5       E5     G5   E5    F5      E5      F5
     4/4                               3/4         4/4           3/4
      Gtrs I, III       Gtr I
      PM------------|
      E E E E E E E E   E E Q  E E Q    E E Q  Q    Q  Q  Q  Q    Q  Q  E E
    |-----------------|---------------|-----------|-------------|------------|
    |-----------------|---------------|-----------|-------------|------------|
    |-----------------|---------------|-----------|-------------|------------|
    |-----------------|-2------3------|-2------5--|-2-----3-----|-2-----2-3--|
    |-2-3-2-3-2-3-2-3-|-2------3------|-2------5--|-2-----3-----|-2-----2-3--|
    |-----------------|-0------1------|-0------3--|-0-----1-----|-0-----0-1--|
    
      E5   F5     E5   G5   E5   F5     E5 N.C.
     4/4         3/4       4/4         3/4
                                           Gtrs I, III
                                           PM----|
      H    H      H    Q    H    H      Q  E E E E
    |-----------|---------|-----------|-------------||
    |-----------|---------|-----------|-------------||
    |-----------|---------|-----------|-------------||
    |-2----3----|-2----5--|-2----3----|-2-----------||
    |-2----3----|-2----5--|-2----3----|-2-----------||
    |-0----1----|-0----3--|-0----1----|-0--0-1-0-1--||
    
        E5     F5 N.C.  E5     G5   E5     F5 N.C.  E5 N.C.
       4/4             3/4         4/4             3/4
        GtrGtrsGtrGtrs IGtrGtrsGtr III GtrsGtrGtrs IGtrGtrs I, III
           PM|    PM|      PM|         PM|    PM|      PM----|
        Q  E E Q  E E   Q  E E Q    Q  E E Q  E E   Q  E E E E  4x
    ||----------------|-----------|---------------|-------------||
    ||o---------------|-----------|---------------|------------o||
    ||----------------|-----------|---------------|-------------||
    ||--2------3------|-2------5--|-2------3------|-2-----------||
    ||o-2------3------|-2------5--|-2------3------|-2----------o||
    ||--0--0-0-1--0-0-|-0--0-0-3--|-0--0-0-1--0-0-|-0--0-1-0-1--||
    
      H=H
      E5
     4/4
      Gtr I
      W          +W           +W           +W
    |----------|------------:------------:------------:
    |----------|------------:------------:------------:
    |----------|------------:------------:------------:
    |-2--------|-(2)--------:-(2)--------:-(2)--------:
    |-2--------|-(2)--------:-(2)--------:-(2)--------:
    |-0--------|-(0)--------:-(0)--------:-(0)--------:
    
                              Fast Rock Q=194
                                 B5    N.C.           C5 D5  A6 B5
                                 Gtrs I, III          Gtr I
                                 PM----------------|
      +W           +W            E  S  S  S  S  S  S  S  E.  E  E
    |------------:------------|-----------------------------------|
    |------------:------------|-----------------------------------|
    |------------:------------|-----------------------------------|
    |-(2)--------:-(2)--------|--4--------------------5s=4---4--4-|
    |-(2)--------:-(2)--------|--2--2--3--2--3--2--3--3s=2---0--2-|
    |-(0)--------:-(0)--------|-----------------------------------|
    
      N.C.            C5B5 A6B5
      Gtrs I, III     Gtr I
      PM------------|
      S S S S S S S S S E. E E
    |--------------------------|
    |--------------------------|
    |--------------------------|
    |-----------------5s4--4-4-|
    |-2-3-2-3-2-3-2-3-3s2--0-2-|
    |--------------------------|
    
      N.C.            C5B5 A6B5  N.C.
      Gtrs I, III     Gtr I      Gtrs I, III
      PM------------|            PM--------------------|
      S S S S S S S S S E. E E   S S S S S S S S e e e e
    |--------------------------|--------------------------|
    |--------------------------|--------------------------|
    |--------------------------|--------------------------|
    |-----------------5s4--4-4-|---------------------5-4--|
    |-2-3-2-3-2-3-2-3-3s2--0-2-|-2-3-2-3-2-3-2-3-3-2------|
    |--------------------------|--------------------------|
    
      B5N.C.        C5B5 A6B5  N.C.            C5B5     A6  B5N.C.        C5B5 A6B5
                    Gtr I      Gtrs I, III     Gtr I          Gtrs I, III Gtr I
      PM----------|            PM------------|                PM--------|
      E S S S S S S S E. E E   S S S S S S S S S E. +E  E   E S S S S S S S E. E E
    |------------------------|----------------------------|------------------------|
    |------------------------|----------------------------|------------------------|
    |------------------------|----------------------------|------------------------|
    |-4-------------5s4--4-4-|-----------------5s4--(4)-4-|-4-------------5s4--4-4-|
    |-2-2-3-2-3-2-3-3s2--0-2-|-2-3-2-3-2-3-2-3-3s2--(2)-0-|-2-2-3-2-3-2-3-3s2--0-2-|
    |------------------------|----------------------------|------------------------|
    
      N.C.                      E5  G5  E5   G5  E5     G5  E5   G5  E5
      Gtrs I, III               Gtr I
      PM--------------------|
      S S S S S S S S e e e e   E E S S E Q  S S E   Q  S S E Q  S S E
    |-------------------------|--------------------|--------------------|
    |-------------------------|--------------------|--------------------|
    |-------------------------|--------------------|--------------------|
    |---------------------5-4-|--------------------|--------------------|
    |-2-3-2-3-2-3-2-3-3-2-----|-2---5-5-2----5-5-2-|----5-5-2----5-5-2--|
    |-------------------------|-0---3-3-0----3-3-0-|----3-3-0----3-3-0--|
    
      B5  N.C.                C5     B5  N.C.
        Gtrs I, III           GtrGtrs I, Gtr I
        PM----------------|      PM----|
      E S S S S S S E E E E   Q  E E E E S S E
    |-----------------------|------------------|
    |-----------------------|------------------|
    |-----------------------|------------------|
    |-4---------------------|-5--5-5-4-4-------|
    |-2-2-3-2-3-2-3-0-2-0-2-|-3--3-3-2-2-------|
    |-----------------------|------------3p2p0-|
    
      E5 N.C.  E5 N.C.    D5 N.C.  D5 N.C.
      Q  S S E Q  S S E   Q  S S E Q  S S E
    |-------------------|--------------------|
    |-------------------|--------------------|
    |-------------------|-7--------7---------|
    |-2--------2--------|-7--------7---------|
    |-2--------2--------|-5--------5---------|
    |-0--3p2p0-0--3p2p0-|----3p2p0----3p2p0--|
    
      B5  N.C.                C5     B5  N.C.    E5              D5     C5
        Gtrs I, III Gtrs I, II   Gtrs I, Gtr I
        PM--------|              PM----|
      E S S S S S S E E E E   Q  E E E E S S E   E E Q  E E Q    E E Q  E E Q
    |-----------------------|------------------|---------------|---------------|
    |-----------------------|------------------|---------------|---------------|
    |-----------------------|------------------|-9------9------|-7------5------|
    |-4---------------------|-5--5-5-4-4-------|-9------9------|-7------5------|
    |-2-2-3-2-3-2-3-0-2-0-2-|-3--3-3-2-2-------|-7------7------|-5------3------|
    |-----------------------|------------3p2p0-|-0------0------|---------------|
    
      B5  N.C.                C5         B5VII         B5  N.C.      C5B5 A6B5
                                         Gtr II
      W                       H          Q.        E   W
                                         |
                                         /
        Gtrs I, III           GtrGtrs I, III                         Gtr I
        PM----------------|      PM--------------------------------|
      E S S S S S S E E E E   Q  S S S S S S E S S E   E S S S S S S S E. E E
    |-----------------------|------------------------|------------------------|
    |-----------------------|------------------------|------------------------|
    |-----------------------|------------------------|------------------------|
    |-4---------------------|-5----------------------|-4-------------5s4--4-4-|
    |-2-2-3-2-3-2-3-0-2-0-2-|-3--3-3-3-3-3p2p0-2p0---|-2-2-3-2-3-2-3-3s2--0-2-|
    |-----------------------|----------------------0-|------------------------|
    
      N.C.            C5B5 A6B5
      Gtrs I, III     Gtr I
      PM------------|
      S S S S S S S S S E. E E
    |--------------------------|
    |--------------------------|
    |--------------------------|
    |-----------------5s4--4-4-|
    |-2-3-2-3-2-3-2-3-3s2--0-2-|
    |--------------------------|
    
      N.C.            C5B5 A6B5  N.C.
      Gtrs I, III     Gtr I      Gtrs I, III
      PM------------|            PM--------------------|
      S S S S S S S S S E. E E   S S S S S S S S e e e e
    |--------------------------|--------------------------|
    |--------------------------|--------------------------|
    |--------------------------|--------------------------|
    |-----------------5s4--4-4-|---------------------5-4--|
    |-2-3-2-3-2-3-2-3-3s2--0-2-|-2-3-2-3-2-3-2-3-3-2------|
    |--------------------------|--------------------------|
    
      B5  N.C.      C5B5 A6B5  N.C.            C5B5     A6
      W                        W
                    Gtr I      Gtrs I, III     Gtr I
      PM----------|            PM------------|
      E S S S S S S S E. E E   S S S S S S S S S E. +E  E
    |------------------------|----------------------------|
    |------------------------|----------------------------|
    |------------------------|----------------------------|
    |-4-------------5s4--4-4-|-----------------5s4--(4)-4-|
    |-2-2-3-2-3-2-3-3s2--0-2-|-2-3-2-3-2-3-2-3-3s2--(2)-0-|
    |------------------------|----------------------------|
    
      B5  N.C.      C5B5 A6B5  E5
                               Gtr II
      W                        Q       E   E   E E Q
                               |       |   |   |   |
                               /       /   /   /   /
      Gtrs I, III   Gtr I      Gtrs I, III
      PM----------|            PM--------------------|
      E S S S S S S S E. E E   S S S S S S S S e e e e
    |------------------------|--------------------------|
    |------------------------|--------------------------|
    |------------------------|--------------------------|
    |-4-------------5s4--4-4-|---------------------5-4--|
    |-2-2-3-2-3-2-3-3s2--0-2-|-2-3-2-3-2-3-2-3-3-2------|
    |------------------------|--------------------------|
    
       1st, 2nd, and 3rd Verses
        Q=194
        $
        F#5        G5         A5         E5      B5C5
        Gtr I
        W          W          W          H    +E E Q
        |          |          |          |     | | |
        /          /          /          /     / / /
        W          W          W          W
    ||-----------|----------|----------|---------------|
    ||o----------|----------|----------|---------------|
    ||-----------|----------|----------|---------------|
    ||-----------|----------|----------|---------------|
    ||o----------|----------|----------|---------------|
    ||-----------|----------|----------|---------------|
    
      F#5        G5         E5         A5      E5G5
      W          W          W          H    +E E Q
      |          |          |          |     | | |
      /          /          /          /     / / /
      W          W          W          W
    |----------|----------|----------|--------------|
    |----------|----------|----------|--------------|
    |----------|----------|----------|--------------|
    |----------|----------|----------|--------------|
    |----------|----------|----------|--------------|
    |----------|----------|----------|--------------|
    
                              To Coda
      F#5        D5         A5         G5
      W          W          W          Q  Q  H
      |          |          |          |
      /          /          /          /
      W          W          W          W
    |----------|----------|----------|------------|
    |----------|----------|----------|------------|
    |----------|----------|----------|------------|
    |----------|----------|----------|------------|
    |----------|----------|----------|------------|
    |----------|----------|----------|------------|
    
      C5B5   C5       B5  N.C.      C5B5 A6B5  N.C.            C5B5 A6B5  F#5
                                                                          Gtr I
      E Q.   E Q.     W                        W                          W
      | |    | |                                                          |
      / /    / /                                                          /
                      Gtrs I, III   Gtr I      Gtrs I, III     Gtr I
                      PM----------|            PM------------|
      W               E S S S S S S S E. E E   S S S S S S S S S E. E E   W
    |---------------|------------------------|--------------------------|------|
    |---------------|------------------------|--------------------------|------|
    |---------------|------------------------|--------------------------|------|
    |---------------|-4-------------5s4--4-4-|-----------------5s4--4-4-|------|
    |---------------|-2-2-3-2-3-2-3-3s2--0-2-|-2-3-2-3-2-3-2-3-3s2--0-2-|------|
    |---------------|------------------------|--------------------------|------|
    
      G5         A5         E5      B5C5   F#5
      W          W          H    +E E Q    W
      |          |          |     | | |    |
      /          /          /     / / /    /
      W          W          W              W
    |----------|----------|--------------|------|
    |----------|----------|--------------|------|
    |----------|----------|--------------|------|
    |----------|----------|--------------|------|
    |----------|----------|--------------|------|
    |----------|----------|--------------|------|
    
      G5         E5         A5      F#G5   F#5
      W          W          H    +E E Q    W
      |          |          |     | | |    |
      /          /          /     / / /    /
      W          W          W              W
    |----------|----------|--------------|------|
    |----------|----------|--------------|------|
    |----------|----------|--------------|------|
    |----------|----------|--------------|------|
    |----------|----------|--------------|------|
    |----------|----------|--------------|------|
    
      D5         A5         G5                          C5
                                        Gtrs I, III     Gtr I
      W          W          H    H      S S E E E S S E Q
      |          |          |           | | | |   | | | |
      /          /          /           x x x x   x x x /
      W          W          W           W
    |----------|----------|-----------|----------------------|
    |----------|----------|-----------|----------------------|
    |----------|----------|-----------|----------------------|
    |----------|----------|-----------|----------------------|
    |----------|----------|-----------|----------------------|
    |----------|----------|-----------|----------------------|
    
      B5  N.C.      C5B5 A6B5  N.C.            C5B5 A6B5
      Gtrs I, III   Gtr I      Gtrs I, III     Gtr I
      PM----------|            PM------------|
      E S S S S S S S E. E E   S S S S S S S S S E. E E
    |------------------------|--------------------------|
    |------------------------|--------------------------|
    |------------------------|--------------------------|
    |-4-------------5s4--4-4-|-----------------5s4--4-4-|
    |-2-2-3-2-3-2-3-3s2--0-2-|-2-3-2-3-2-3-2-3-3s2--0-2-|
    |------------------------|--------------------------|
    
      N.C.            C5B5 A6B5  N.C.
      Gtrs I, III     Gtr I      Gtrs I, III
      PM------------|            PM--------------------|
      S S S S S S S S S E. E E   S S S S S S S S e e e e
    |--------------------------|-------------------------|
    |--------------------------|-------------------------|
    |--------------------------|-------------------------|
    |-----------------5s4--4-4-|---------------------5-4-|
    |-2-3-2-3-2-3-2-3-3s2--0-2-|-2-3-2-3-2-3-2-3-3-2-----|
    |--------------------------|-------------------------|
    
      E5  G5  E5   G5  E5  B5  N.C.
      Gtr I                  Gtrs I, III
                             PM----------------|
      E E S S E Q  S S E   E S S S S S S E E E E
    |--------------------|-----------------------|
    |--------------------|-----------------------|
    |--------------------|-----------------------|
    |--------------------|-4---------------------|
    |-2---5-5-2----5-5-2-|-2-2-3-2-3-2-3-0-2-0-2-|
    |-0---3-3-0----3-3-0-|-----------------------|
    
      C5     B5  N.C.    E5 N.C.  E5
      GtrGtrs I, Gtr I
         PM----|
      Q  E E E E S S E   Q  S S E E E Q
    |------------------|-------------------||
    |------------------|-------------------||
    |------------------|-------------------||
    |-5--5-5-4-4-------|-2--------2---2----||
    |-3--3-3-2-2-------|-2--------2---2----||
    |------------3p2p0-|-0--3p2p0-0---0----||
    
     Chorus
      E5                                  N.C.  D5            E5
        Gtrs I, III       GtrGtrsGtr III  Gtrs IGtrGtrs IGtr I   GtrsGtr III
        PM------------|      PM|          PM--|    PM--|         PM|
      E E E E S S E E E   Q  E E E E Q    S S E Q  S S E Q    Q  E E E E Q
    |-------------------|---------------|-------------------|----------------|
    |-------------------|---------------|-------------------|----------------|
    |-------------------|---------------|-------------------|----------------|
    |-------------------|-2------2---2--|-------7--------7--|-2------2---2---|
    |-2-2-2-2-x-x-2-2-2-|-2------2---2--|-5-5-5-5--5-5-5-5--|-2------2---2---|
    |-0-0-0-0-x-x-0-0-0-|-0--3p0-0---0--|-------------------|-0--3p0-0---0---|
    
                                          N.C.  C5    N.C.
                                                             3/4
        Gtrs I, III       GtrGtrsGtr III  Gtrs IGtr I Gtrs I, III
        PM------------|      PM|          PM--|       PM----------------------|
      E E E E S S E E E   Q  E E E E Q    S S E Q  Q  S S E   S S E S S E S S E
    |-------------------|---------------|-------------------|--------------------|
    |-------------------|---------------|-------------------|--------------------|
    |-------------------|---------------|-------5--5--------|--------------------|
    |-------------------|-2------2---2--|-------5--5--------|--------------------|
    |-2-2-2-2-x-x-2-2-2-|-2------2---2--|-0-2-3-3--3--3-3-2-|-2-2-2-2-2-2-2-2-2--|
    |-0-0-0-0-x-x-0-0-0-|-0--3p0-0---0--|-------------------|--------------------|
    
      B5  N.C.      C5B5 A6B5  N.C.            C5B5 A6B5
     4/4
      Gtrs I, III   Gtr I      Gtrs I, III     Gtr I
      PM----------|            PM------------|
      E S S S S S S S E. E E   S S S S S S S S S E. E E
    |------------------------|--------------------------|
    |------------------------|--------------------------|
    |------------------------|--------------------------|
    |-4-------------5s4--4-4-|-----------------5s4--4-4-|
    |-2-2-3-2-3-2-3-3s2--0-2-|-2-3-2-3-2-3-2-3-3s2--0-2-|
    |------------------------|--------------------------|
    
      N.C.            C5B5 A6B5  N.C.
      Gtrs I, III     Gtr I      Gtrs I, III
      PM------------|            PM--------------------|
      S S S S S S S S S E. E E   S S S S S S S S e e e e
    |--------------------------|---------------------------|
    |--------------------------|---------------------------|
    |--------------------------|---------------------------|
    |-----------------5s4--4-4-|---------------------5-4---|
    |-2-3-2-3-2-3-2-3-3s2--0-2-|-2-3-2-3-2-3-2-3-3-2-------|
    |--------------------------|---------------------------|
    
      B5  N.C.      C5B5 A6B5  N.C.            C5B5     A6
      W                        W
                    Gtr I      Gtrs I, III     Gtr I
      PM----------|            PM------------|
      E S S S S S S S E. E E   S S S S S S S S S E. +E  E
    |------------------------|----------------------------|
    |------------------------|----------------------------|
    |------------------------|----------------------------|
    |-4-------------5s4--4-4-|-----------------5s4--(4)-4-|
    |-2-2-3-2-3-2-3-3s2--0-2-|-2-3-2-3-2-3-2-3-3s2--(2)-0-|
    |------------------------|----------------------------|
    
                              1.
      B5  N.C.      C5B5 A6B5  E5
                               Gtr II
      W                        Q       S S E   E E Q
                               |       | | |   |   |
                               /       / / /   /   /
      Gtrs I, III   Gtr I      Gtrs I, III
      PM----------|            PM--------------------|
      E S S S S S S S E. E E   S S S S S S S S e e e e
    |------------------------|---------------------------||
    |------------------------|--------------------------o||
    |------------------------|---------------------------||
    |-4-------------5s4--4-4-|---------------------5-4---||
    |-2-2-3-2-3-2-3-3s2--0-2-|-2-3-2-3-2-3-2-3-3-2------o||
    |------------------------|---------------------------||
    
      2.
      N.C.                                  E5F5
                                       2/4
      Gtrs I, III
      PM--------------------------------------|
      S S S S S S S S S S S S S S S S   E E E E
    |---------------------------------|---------|
    |---------------------------------|---------|
    |---------------------------------|---------|
    |---------------------------------|-----3-3-|
    |-2-3-2-3-2-3-2-3-2-3-2-3-2-3-2-3-|-2-3-2-3-|
    |---------------------------------|-----0-1-|
    
       4/4             3/4         4/4             3/4
        GtrGtrsGtrGtrs IGtrGtrsGtr III GtrsGtrGtrs IGtrGtrs I, III
           PM|    PM|      PM|         PM|    PM|      PM----|
        Q  E E Q  E E   Q  E E Q    Q  E E Q  E E   Q  E E E E  3x
    ||----------------|-----------|---------------|-------------||
    ||o---------------|-----------|---------------|------------o||
    ||----------------|-----------|---------------|-------------||
    ||--2------3------|-2------5--|-2------3------|-2-----------||
    ||o-2------3------|-2------5--|-2------3------|-2----------o||
    ||--0--0-0-1--0-0-|-0--0-0-3--|-0--0-0-1--0-0-|-0--0-1-0-1--||
    
                    Guitar Solo
                     N.C.(E)                       C5    B5        A6       B5
     2/4            4/4
      Gtrs I, III                                  Gtr I
      PM----------------------------------------|
      E E  E    E     S     S  S  S  S     S  S  S  S     E.        E        E
    |-------------||--------------------------------------------------------------|
    |-------------||--------------------------------------------------------------|
    |-------------||--------------------------------------------------------------|
    |-------------||--------------------------------5s====4---------4--------4----|
    |-2-3--2----3-||--------------------------------3s====2---------0--------2----|
    |-------------||--0-----0--0--0--0-----0--0--0--------------------------------|
    |
    | Gtr II
    | Q    Q          S     S  S  S  S     S  S  S  S     S   S  S  S     S  S  S
    |-------------||----------12-------------12--------------12-------------12----|
    |-------------||-------12----15-------12----15-------12-----15-------12----15-|
    |-------------||-14b16----------14b16----------14b16-----------14b16----------|
    |-----19b21---||--------------------------------------------------------------|
    |-------------||--------------------------------------------------------------|
    |-------------||--------------------------------------------------------------|
    
      N.C.(E)                           C5 B5       A6    B5
      Gtrs I, III                       Gtr I
       PM--------------------------|
       S    S     S  S  S  S  S    S     S  E.       E      E
    |--------------------------------------------------------------|
    |--------------------------------------------------------------|
    |--------------------------------------------------------------|
    |------------------------------------5s=4--------4------4------|
    |------------------------------------3s=2--------0------2------|
    |--0----0-----0--0--0--0--0----0-------------------------------|
    |
    |  |---3---|              |---3---|
    |  S  S    S  S  S  S  S  S  S    S  S  S  S  S  S  S   S  S
    |-12h15p==12-------12h15p12---------12h15p12----12h15-/14------|
    |------------12h15----------12h==15----------15-----------14---|
    |--------------------------------------------------------------|
    |--------------------------------------------------------------|
    |--------------------------------------------------------------|
    |--------------------------------------------------------------|
    
                            C5 B5           A6          B5
      Gtrs I, III           Gtr I
       PM-----------------|
       S  S  S  S  S S  S S  S  E.           E           E
    |-----------------------------------------------------------------|
    |-----------------------------------------------------------------|
    |-----------------------------------------------------------------|
    |------------------------5s=4------------4-----------4------------|
    |------------------------3s=2------------0-----------2------------|
    |--0--0--0--0--0-0--0-0-------------------------------------------|
    |
    |  S  S  S  S  E    E    S  S   a  S  S  T  T  a  S  T  T   S
    |-14h17p14----19p==14---17-14--14h17p14----14-17S20----14-/22b23==|
    |----------17---------------------------15----------19------------|
    |-----------------------------------------------------------------|
    |-----------------------------------------------------------------|
    |-----------------------------------------------------------------|
    |-----------------------------------------------------------------|
    
      N.C.(E)
      Gtrs I, III
        PM--------------------------------|
        S     S S S S S  S     S   E  E E   E
    |--------------------------------------------|
    |--------------------------------------------|
    |--------------------------------------------|
    |--------------------------------------------|
    |--------------------------------------------|
    |---0-----0-0-0-0-0--0-----0---0--1-0---1----|
    |
    |                              ~~~~
    |  +Q.               E        +Q.      +E
    |-(22)b24-----------22b24====(22)-----(22)r-|
    |--------------------------------------------|
    |--------------------------------------------|
    |--------------------------------------------|
    |--------------------------------------------|
    |--------------------------------------------|
    
                          C5B5 A6B5  N.C.(E)              C5 B5    A6   B5
                          Gtr I      Gtrs I, III          Gtr I
        PM--------------|               PM--------------|
        S   S S S S S S S S E. E E      S   S S S S S S S  S E.      E  E
    |------------------------------|------------------------------------------|
    |------------------------------|------------------------------------------|
    |------------------------------|------------------------------------------|
    |---------------------5s4--4-4-|-----------------------5s4-------4--4-----|
    |---------------------3s2--0-2-|-----------------------3s2-------0--2-----|
    |---0---0-0-0-0-0-0-0----------|----0---0-0-0-0-0-0-0---------------------|
    |
    |   /2______________________________|
    |   W                              +H                  E     E  +E.     S
    |------------------------------|------------------------------------------|
    |-<12>-------------------------|-(<12>)-----------------------------------|
    |-<12>-------------------------|-(<12>)---------------12------------------|
    |------------------------------|----------------------------14-(14)---/12-|
    |------------------------------|------------------------------------------|
    |------------------------------|------------------------------------------|
    
         N.C.(E)             C5 B5    A6 B5       N.C.(E)
         Gtrs I, III         Gtr I                Gtrs I, III
          PM---------------|                        PM--------------------------------
          S S  S S  S S  S S  S E.     E  E         S  S  S S  S S  S S  E  E E E
    |-------------------------------------------|------------------------------------|
    |-------------------------------------------|------------------------------------|
    |-------------------------------------------|------------------------------------|
    |-------------------------5s4------4--4-----|------------------------------------|
    |-------------------------3s2------0--2-----|------------------------------------|
    |-----0-0--0-0--0-0--0-0--------------------|---0--0--0-0--0-0--0-0--0--1-0-1----|
    |
    |                                     ~~~~~~~~~~~~~~                 ~~~
    |  a  E    E    E    E    E     E  E  E        +E     E    E    E    Q.     S  S
    |-------------------------------------------|------------------------------------|
    |-------------------------------------------|---------------------------------10s|
    |-------------------------------------------|------------------------------------|
    |-12h14---12--------------------------------|------------------------------------|
    |--------------14---13---12----10-12-12pb14r|=(12)p==10---12---10----------------|
    
    Узнай ВСЕ о своем друге в ВК или FB
    |-------------------------------------------|-----------------------12-----------| N.C.(F#) G5 F5(type 2)E6 F#5(type 2) Gtr I --------------------| S S S S S S S S S E. E E |------------------------------------------------| |------------------------------------------------| |------------------------------------------------| |------------------------------------------------| |-----------------------5s==4---------4----4-----| |--2----2-2-2-2-2--2-2--3s==2---------0----2-----| | | ~~~~~ | |---3---| | Q. E S S S S E E E |--------------------------------------------14--| |-14b15-----------14---15p=14-----14-15-17-------| |------------------------------16----------------| |------------------------------------------------| |------------------------------------------------| |------------------------------------------------| N.C.(F#) G5 F#5(type E6 F#5(typN.C.(F#) Gtrs I, III Gtr I PM------------------------------| S S S S S S S S S E. E E |------------------------------------------------------------------| |------------------------------------------------------------------| |------------------------------------------------------------------| |------------------------------------------------------------------| |-----------------------------------------5s===4--------4-----4----| |-----2--2--2--2---2-----2-------2----2---3s===2--------0-----2----| | | |-------3--------| | a S S S S +S S +S S E +S S S S S E S |-14h15p14----15-(15)-17---(17)-17s19---(19)p=17p15-------------15s| |----------17---------------------------------------19p17p15------| |------------------------------------------------------------------| |------------------------------------------------------------------| |------------------------------------------------------------------| |------------------------------------------------------------------| G5 F#5(type 2) E6 F#5(type 2) Gtrs I, III Gtr I PM-----------------| S S S S S S S S S E. E E |--------------------------------------------------| |--------------------------------------------------| |--------------------------------------------------| |--------------------------------------------------| |--------------------------5s==4-----------4-----4-| |--2-2--2--2--2--2--2--2---3s==2-----------0-----2-| | | E S S S S S S S S S S a S S E |-17p==15p14h15p14---------------------------------| |------------------17p14-/17--17p15p14-14h15p14----| |-----------------------------------------------16-| |--------------------------------------------------| |--------------------------------------------------| |--------------------------------------------------| Gtrs I, III PM--------------------------------------- S S S S S S S S E E E E |------------------------------------------| |------------------------------------------| |------------------------------------------| |------------------------------------------| |------------------------------------------| |--2--2--2-2--2--2--2-2--2-3------2---3----| | | ~~ | |-3--| | S S E S S E Q E +E S S |------------------------------------------| |-14---------------------------------------| |----16-14---16-14------14h==16-(16)-11s14-| |------------------16----------------------| |------------------------------------------| |------------------------------------------| Gtr I --------------------| S S S S S S S S S E. E E |--------------------------------------| |--------------------------------------| |--------------------------------------| |--------------------------------------| |------------------------5s=4----4-4---| |---2--2--2-2-2-2--2-2---3s=2----0-2---| | | Q Q Q E E |--14----12-------10-----------9-------| |----------------------------------7s9-| |-(14)---13-------11---(11)----9-------| |--------------------------------------| |--------------------------------------| |--------------------------------------| +E Q E +E Q S S N.C.(F#) G5 F#5 E6F#5 N.C.(F#) G5F#5 E6 F#5 Gtrs I, III Gtr I Gtrs I, III Gtr I PM---------------| PM------------| S S S S S S S S S E. E E S S S S S S S S S E. E E |----------------------------------|------------------------------| |----------------------------------|------------------------------| |----------------------------------|------------------------------| |----------------------------------|------------------------------| |----------------------5s4-----4-4-|-----------------5s4---4---4--| |--2--2-2-2--2-2--2-2--3s2-----0-2-|-2-2-2-2-2-2-2-2-3s2---0---2--| | | ~ | S S E S S E S S E Q S S E S S S S S S E S S E |----------------------------------|------------------------------| |-12p10p9---10p9------10-9---------|------------------------------| |----------------11---------11-7---|-9p7p6---7p6------------------| |----------------------------------|-------------9p7-9p7p6-7p6----| |----------------------------------|---------------------------9--| |----------------------------------|------------------------------| N.C.(F#) F#5 F#5 F#5 2/4 4/4 Gtrs I, III Gtr I PM------------| S S S S S S S S S S E S S E S S E S S E W |------------------------------|-------------|------------------| |------------------------------|-------------|------------------| |------------------------------|-------------|------------------| |------------------------------|-------------|--4---------------| |-----------------4--4-4-4-4-4-|-4-4-4-4-4-4-|--4---------------| |-2-2-2-2-2-2-2-2-2--2-2-2-2-2-|-2-2-2-2-2-2-|--2---------------| | | |-3-| |-3-| | S S E S S S S Q Q W Q Q Q a Q Q Q |------------------------------|-------------|------------------| |------------------------------|-------------|------------------| |------------------------------|-------------|------6-6h7-6-----| |-6----------------------------|-------------|----7---------7---| |---9p7---9p7-5h7h9-----------|-------------|-/9---------------| |------------------------------|-------------|------------------| G5 A5 E5 B5 C5 Gtr I W W H +E E Q | | | | | | / / / / / / Gtr II |-3-| |-3-| |-3-| |-3-| |---3---| |---3---| Q Q Q a Q Q Q Q Q Q a Q Q Q Q S S E Q Q Q Q |----------------|-----------------|-----------------------| |----------------|-----------------|-----------------------| |---4-5-5h7-5-4--|----6-7-7s9-7-6--|-7-6h7p6---------------| |-5--------------|-/7--------------|---------9--7---5---4--| |----------------|-----------------|-----------------------| |----------------|-----------------|-----------------------| N.C.(F#) G5 F#5 E6 F#5 Gtrs I, III Gtr I PM--------------| S S S S S S S S S E. E E |----------------------------------------------| |----------------------------------------------| |----------------------------------------------| |----------------------------------------------| |---------------------5s==4--------4-----4-----| |-2-2-2-2-2-2-2---2---3s==2--------0-----2-----| | | Gtr II | |--3--| |---------9:8----------| | S S S S S S S S S S S S S S S S S S |----------------------------------------------| |----------------------------------------------| |----------------------------------------------| |-5p4p0-5p4p0-5p4p==0h5p4p===0h5p4p==0h5p==4p0-| |----------------------------------------------| |----------------------------------------------| N.C.(F#) G5F#5 E6 F#5 Gtrs I, III Gtr I PM------------| S S S S S S S S S E. E E |----------------------------------| |----------------------------------| |----------------------------------| |----------------------------------| |-----------------5s4-----4---4----| |-2-2-2-2-2-2-2-2-3s2-----0---2----| | | S S S S S S S S S S S S S S S S |----------------------------------| |----------------------------------| |----------------------------------| |-7p5p0-7p5p0-7p5p0h7p5p0h7p5p0h7S=| |----------------------------------| |----------------------------------| N.C.(F#) G5 F#5 E6 F#5 Gtrs I, III Gtr I PM------------| S S S S S S S S S E. E E |------------------------------------------| |------------------------------------------| |------------------------------------------| |------------------------------------------| |-----------------5s===4------4-----4------| |-2-2-2-2-2-2-2-2-3s===2------0-----2------| | | |----5-----| | S S S S S S S S S a S S S S S S S S |------------------------------------------| |------------------------------------------| |------------------------------------------| |-9p7p0-9p7p0-9p7p0-9s11p9p0-11p9p0---11p9s| |------------------------------------------| |------------------------------------------| N.C.(F#) F#5 Gtrs I, III Gtr I PM-------------------| S S S S S S S S S S E S S E |----------------------------------------------| |----------------------------------------------| |----------------------------------------------| |----------------------------------------------| |-------------------------------4--4-4-4-4-4---| |-----2--2-2--2--2-2--2----2----2--2-2-2-2-2---| | | |--3---| | a S S S S S S S S S H |----------------------------------------------| |----------------------------------------------| |------------------------------11-------------| |-11-12p11p0-12p11p0h12p11p==0-----------------| |----------------------------------------------| |----------------------------------------------| 2/4 4/4 S S E S S E S S E S S E S S E S S E |-------------|-------------------------|| |-------------|-------------------------|| |-------------|-------------------------|| |-------------|-------------------------|| |-4-4-4-4-4-4-|-4-4-4-4-4-4-4-4-4-4-4-4-|| |-2-2-2-2-2-2-|-2-2-2-2-2-2-2-2-2-2-2-2-|| | | H W |-------------|-------------------------|| |-------------|-------------------------|| |-------------|-------------------------|| |-------------|-------------------------|| |-------------|-------------------------|| |-------------|-------------------------|| N.C.(E) C5 B5 A6 B5 Gtrs I, III Gtr I PM-----------------| S S S S S S S S S E. E E |------------------------------------------------------------| |------------------------------------------------------------| |------------------------------------------------------------| |----------------------------5s=4------------4--------4------| |----------------------------3s=2------------0--------2------| |--0--0--0--0--0--0-0--0-------------------------------------| | | S S S S S E S a S S a S S S S a S S |-17p12----12h17p12------12h17p12--12h17p12----12-12h17p12---| |-------15------------15--------------------15---------------| |------------------------------------------------------------| |------------------------------------------------------------| |------------------------------------------------------------| |------------------------------------------------------------| N.C.(E) C5 B5 A6 B5 Gtrs I, III Gtr I PM---------------------------| S S S S S S S S S E. E E |-------------------------------------------------------------------| |-------------------------------------------------------------------| |-------------------------------------------------------------------| |---------------------------------------5s==4---------4--------4----| |---------------------------------------3s==2---------0--------2----| |---0------0--0--0-----0--0---0--0----------------------------------| | | |--3--| | +S a S S S a S S +E S +S S S S T T S S S |-(12)-12h17p12----12h17p12-(12)---17-(17)p12--17p12----12h17p12----| |---------------15-----------------------------------15----------15-| |-------------------------------------------------------------------| |-------------------------------------------------------------------| |-------------------------------------------------------------------| |-------------------------------------------------------------------| N.C.(E) C5 B5 A6 B5 Gtrs I, III Gtr I PM---------------------------| S S S S S S S S S E. E E |---------------------------------------------------------------------------| |---------------------------------------------------------------------------| |---------------------------------------------------------------------------| |--------------------------------------5s=4--------------4--------4---------| |--------------------------------------3s=2--------------0--------2---------| |--0--0-----0--0-----0--0-----0--0------------------------------------------| | | T T T T T T T T | S T T S T T S T T S T T S T T S T T S T T S T T |-19p15p12-19p15p12-19p15p12-19p15p12-19p15p12-19p15p12-19p15p12-19p15p12---| |---------------------------------------------------------------------------| |---------------------------------------------------------------------------| |---------------------------------------------------------------------------| |---------------------------------------------------------------------------| |---------------------------------------------------------------------------| N.C.(E) Gtrs I, III PM-------------------------------------------------------| S S S S S S S S E E E E |-----------------------------------------------------------------| |-----------------------------------------------------------------| |-----------------------------------------------------------------| |-----------------------------------------------------------------| |-----------------------------------------------------------------| |--0--0-----0--0-----0----0-----0--0----0-------1----0--------1---| | | T T T | |---3---| | S T T S T T S S S S S E +E +E +E |-19p15p12-19p15p12-19p15p==12h15p12/-/22b24==(22)r(22)b24==(22)r-| |-----------------------------------------------------------------| |-----------------------------------------------------------------| |-----------------------------------------------------------------| |-----------------------------------------------------------------| |-----------------------------------------------------------------| F#5 D5 Gtr I W W |----------------|------------------| |----------------|------------------| |----------------|----7-------------| |-4--------------|----7-------------| |-4--------------|----5-------------| |-2--------------|------------------| | | |-3-| |-3-| |-3-| |-3-| | Q Q Q a Q Q Q a Q Q Q Q Q Q |----------------|------------------| |----------------|-8s10-8-7---------| |-----6-6h7-6----|----------9-7-6---| |---7---------7--|------------------| |-9--------------|------------------| |----------------|------------------| A5 G Gtr I W S S S S S S S S S S S S S S S S | | | | | | | | | | | | | | | | | / o / / / / / / / / / / / / / / / Gtr II |-3-| |-3-| Q Q Q Q Q Q S S S S S S S S S S S S S S S S |---------------|-------------------------------------| |---------------|-------------------------------------| |---6-----------|-------------------------------------| |-9---9-7-9-7---|-5-5-5-5-7-7-7-7-9-9-9-9-10-10-10-10-| |---------------|-------------------------------------| |---------------|-------------------------------------| S S S S S S S S S S S S S S S S | | | | | | | | | | | | | | | | / / / / / / / / / / / / / / / / S S S S S S S S S S S S S S S S |-------------------------------------------| |-------------------------------------------| |-7-7-7-7-9-9-9-9-11-11-11-11-12-12-12-12---| |-------------------------------------------| |-------------------------------------------| |-------------------------------------------| G5 S E. Q Q E E | | / / |---3---| |--3--| S S S S S S E E S S S S S S E E |----------------------------------------| |----------------------------------------| |-12h14p12p0h11h12p11p0h9h11p9p0h7h9p7p0h| |----------------------------------------| |----------------------------------------| |----------------------------------------| E E Q H | / |---3---| |---3---| |---3----| S S S S S S S S E S S S S E S S S S E |----------------------------------------|| |----------------------------------------|| |-5h7p5p0h4h5h7p5p0h6h7h9p7p0h7h9h11p9p0-|| |----------------------------------------|| |----------------------------------------|| |----------------------------------------|| Moderate Rock Q=168 N.C.(E) F5E5 D6E5 N.C. E5 F5E5 D6E5 Gtrs I, III Gtr I Gtrs I, III GtGtrs I, IIGtr I PM--------| PM----------------| PM------| E S S E S S S E. E E 3x E S S E S S E E E E E S S E S S S E. E E ||------------------------||---------------------|----------------------| ||o----------------------o||---------------------|----------------------| ||--------------5s4--4-4--||---------------------|-------------5s4--4-4-| ||--------------3s2--0-2--||---------------------|-------------3s2--0-2-| ||o----------------------o||---------------------|-2--------------------| ||--0-0-0-0-0-0-----------||-0-0-0-0-0-0-0-1-0-1-|-0-0-0-0-0-0----------| N.C.(E) F5E5 D6 E5 F5E5 D6E5 N.C.(E) F5 Gtrs I, III Gtr I Gtrs I, IIGtr I Gtrs I, III Gtr I PM--------| PM------| PM----------| E S S E S S S E. +E E E S S E S S S E. E E E S S E S S E E E E |------------------------|----------------------|----------------------|| |------------------------|----------------------|----------------------|| |-------------5s4--(4)-4-|-4-----------5s4--4-4-|----------------------|| |-------------3s2--(2)-0-|-2-----------3s2--0-2-|---------------3---3--|| |------------------------|----------------------|---------------3---3--|| |-0-0-0-0-0-0------------|---0-0-0-0-0----------|-0-0-0-0-0-0-0-1---1--|| Bridge N.C.(E) F5E5 D6E5 N.C. E5 F5E5 D6E5 Gtrs I, III Gtr I Gtrs I, III GtGtrs I, IIGtr I PM--------| PM----------------| PM------| E S S E S S S E. E E 3x E S S E S S E E E E E S S E S S S E. E E ||------------------------||---------------------|----------------------| ||o----------------------o||---------------------|----------------------| ||--------------5s4--4-4--||---------------------|-------------5s4--4-4-| ||--------------3s2--0-2--||---------------------|-------------3s2--0-2-| ||o----------------------o||---------------------|-2--------------------| ||--0-0-0-0-0-0-----------||-0-0-0-0-0-0-0-1-0-1-|-0-0-0-0-0-0----------| N.C.(E) F5E5 D6 E5 F5E5 D6E5 N.C.(E) F5 Gtrs I, III Gtr I Gtrs I, IIGtr I Gtrs I, III Gtr I PM--------| PM------| PM----------| E S S E S S S E. +E E E S S E S S S E. E E E S S E S S E E E E |------------------------|----------------------|----------------------| |------------------------|----------------------|----------------------| |-------------5s4--(4)-4-|-4-----------5s4--4-4-|----------------------| |-------------3s2--(2)-0-|-2-----------3s2--0-2-|---------------3---3--| |------------------------|----------------------|---------------3---3--| |-0-0-0-0-0-0------------|---0-0-0-0-0----------|-0-0-0-0-0-0-0-1---1--| E5 N.C.E B5 E5 N.C. 3/4 Gtrs IGtr I Gtrs I, III PM--| PM--| Q S S E E E Q S S E Q ||----------------||------------| ||o--------------o||------------| ||-----------4----||------------| ||--2--------4----||-2----------| ||o-2--------2---o||-2----------| ||--0--1-1-0------||-0--1-1-0---| D.S. al Coda N.C.E5 N.C.E5 N.C. E5 B5 E5 4/4 Gtr IGtrsGtr Gtrs I, III GtrGtrsGtr III PM| PM| PM--------------------| PM| S S E Q S S E S S E S S E S S E S S E Q E E E E Q |----------------|-------------------------|---------------|| |----------------|-------------------------|---------------|| |----------------|-------------------------|--------4------|| |-----2--------2-|-------------------------|-2--2-2-4---2--|| |-----2--------2-|-------------------------|-2--2-2-2---2--|| |-1-1-0----1-1-0-|-0-0-0-0-0-0-0-0-0-0-0-0-|-0--0-0-----0--|| Original Tempo Q=194 & G5 N.C. C5 N.C. Gtr I Gtrs I, III PM------------| Q Q H S S E E S S E E Q E E E E E E E E |------------|-------------------|-----------------| |------------|-------------------|-----------------| |------------|-----------------5-|-----------------| |-5----------|-----------------5-|-----------------| |-5----------|-2-2-2-2-2-2-2-2-3-|-2-3-2-3---------| |-3----------|-------------------|---------0-1-0-1-| E5 4/4 3/4 4/4 3/4 4/4 GtrGtrsGtrGtrs IGtrGtrsGtr III GtrsGtrGtrs IGtrGtrs I, IIGtr I PM| PM| PM| PM| PM| PM----| Q E E Q E E Q E E Q Q E E Q E E Q E E E E E E H. |---------------|-----------|---------------|------------|-----------*| |---------------|-----------|---------------|------------|-----------*| |---------------|-----------|---------------|------------|-----------*| |-2------3------|-2------5--|-2------3------|-2----------|-2---------*| |-2------3------|-2------5--|-2------3------|-2----------|-2---------*| |-0--0-0-1--0-0-|-0--0-0-3--|-0--0-0-1--0-0-|-0--0-1-0-1-|-0---------*| Duration Legend --------------- W - whole; H - half; Q - quarter; E - 8th; S - 16th; T - 32nd; X - 64th; a - acciaccatura + - note tied to previous; . - note dotted; .. - note double dotted Uncapitalized letters represent notes that are staccato (1/2 duration) Irregular groupings are notated above the duration line Duration letters will always appear directly above the note/fret number it represents the duration for. Duration letters with no fret number below them represent rests. Multi- bar rests are notated in the form Wxn, where n is the number of bars to rest for. Low melody durations appear below the staff Tablature Legend ---------------- h - hammer-on p - pull-off b - bend pb - pre-bend r - bend release (if no number after the r, then release immediately) / - slide into or out of (from/to "nowhere") s - legato slide S - shift slide - natural harmonic [n] - artificial harmonic n(n) - tapped harmonic ~ - vibrato tr - trill T - tap TP - trem. picking PM - palm muting n/ - tremolo bar dip; n = amount to dip n - tremolo bar down n/ - tremolo bar up /n - tremolo bar inverted dip = - hold bend; also acts as connecting device for hammers/pulls <> - volume swell (louder/softer) x - on rhythm slash represents muted slash o - on rhythm slash represents single note slash Misc Legend ----------- | - bar || - double bar ||o - repeat start o|| - repeat end *| - double bar (ending) : - bar (freetime) $ - Segno & - Coda Tempo markers - = BPM(8/16=s8/s16), where s8 = swing 8ths, s16 = swing 16ths *************************************************************************************** * Generated using Power Tab Editor by Brad Larsen - http://powertab.guitarnetwork.org * ***************************************************************************************

    http://www.powertabs.net
    искать в аптеке
    список лекарств






    О сайтеАккордыХит-парадПоискУроки ФорумыИщу песню
    ПрограммыСвежачок-сПодпискаСтатьи
    Яндекс.Метрика