Табулатура Metallica | Damage Inc  (2) гитара табулатуры уроки тексты песен Metallica текст lyrics песня аккорды песни ноты нота электрогитара струна  
   А Б В Г Д Е Ж З И К Л М Н О П Р С Т У Ф Х Ч Ш Ы Э Ю Я       Разные песни
1-9 A B C D E F G H I J K L M N O P Q R S T U V W Y Z      Все исполнители in english

    



группа Metallica, Табулатура песни Damage Inc (2)

Работа в Европе для граждан РФ, Украины, СНГ

  • минимальная зарплата $500.
  • виза и контракт на полгода, возможно продление
  • проживание оплачивает работодатель
  • нужен только загранпаспорт
  • оформление 190 €
  • данное предложение - отличная возможность эмигрировать в Европу и закрепиться здесь навсегда.

  • Мы свяжемся с Вами по WhatsApp или Viber и ответим на любые вопросы.
    на нашем сайте можно почитать подробнее »

    Группа: Metallica - другие аккорды (225),   о группе (32 статей),   диски (11),   фотографии (49)
    Табулатура песни: Damage Inc (2)
    Просмотров: 2558
    Прислал: DiaSpar (diaspar@i.com.ua)




        
    #----------------------------------PLEASE NOTE---------------------------------#
    #This file is the author's own work and represents their interpretation of the #
    #song. You may only use this file for private study, scholarship, or research. #
    #------------------------------------------------------------------------------##
                                      DAMAGE, INC.
                                As recorded by Metallica
                         (From the 1986 Album MASTER OF PUPPETS)
    Words and Music by James Hetfield. Lars Ulrich, Kirk Hammett and Cliff Burton
              B5                   G5                   A5                   F#5
          x 2 4 4 x x          3 5 5 x x x          5 7 7 x x x          2 4 x x x x
              E5                   F5                   Bb5
          0 2 2 x x x          1 3 3 x x x          x 1 3 3 x x
    Gtr I (E A D G B E) - 'James'
    Gtr II (E A D G B E) - 'Krik'
    Gtr III (E A D G B E) - 'Cliff'
     Intro
      Slowly Q=70
     4/4
      Gtr III
       <     <      <     <       <     <       <     <        <     <
       H     H      H     H       H     H       H     H        H     H
    |-------------:------------:-------------:--------------:-------------|
    |-------------:------------:-------------:--------------:-------------|
    |-14----12----:-7-----9----:-11----11----:-12-----7-----:-14----12----|
    |-------------:-9----11----:-12-----9----:-10----12p=5--:-------------|
    |-12----14----:------------:-------------:--------------:-12----14----|
    |-------------:------------:-------------:--------------:-------------|
       H     H      H     H       H     H       H     Q. E     H     H
    
      <     <        <        <
      H     Q.  E    Q.  S S  H
    |-------------:----------------:
    |-------------:----------------:
    |-7-----9p==7-:-11p==9p7-11----:
    |-9----11p==7-:-12--------9----:
    |-------------:----------------:
    |-------------:----------------:
      H     Q.  E    H        H
    
       <             <        <     <      <     <
       Q.   T  T  S  Q.  E    H     H      H     Q.  E
    |----------------------:-------------:-------------|
    |----------------------:-------------:-------------|
    |-12p==11h12p11--7p==4-:-14----12----:-7-----9p==7-|
    |-10------------12p==5-:-------------:-9----11p==7-|
    |----------------------:-12----14----:-------------|
    |----------------------:-------------:-------------|
       H             Q.  E    H     H      H     Q.  E
    
       <      <            <          <                   <
       Q.  E  Q   +E. S    Q.  T  T S H      +W           W
    |-------------------:------------------:------------:------||
    |-------------------:------------------:------------:------||
    |-11p==7-11--(11)p7-:-12p==9h11p9-7----:-(7)--------:------||
    |-12------9---------:-10p==7h=9p7-5----:-(5)--------:------||
    |-------------------:------------------:------------:------||
    |-------------------:------------------:------------:-0----||
       H      H            Q.  T  T S H      +W
    
      Fast Q=190
      Gtr I
                             |-3-|                          |-3-|
      Q  Q  Q  Q    Q  Q  Q  E E E   Q  Q  Q  Q    Q  Q  Q  E E E   Q  Q  Q  Q
    |-------------|----------------|-------------|----------------|--------------|
    |-------------|----------------|-------------|----------------|--------------|
    |-------------|----------------|-------------|----------------|--------------|
    |-2-----2-----|-2-----2--3-3-3-|-2-----2-----|-2-----2--3-3-3-|-2--2--2--2---|
    |-2-----2-----|-2-----2--3-3-3-|-2-----2-----|-2-----2--3-3-3-|-2--2--2--2---|
    |-0-----0-----|-0-----0--1-1-1-|-0-----0-----|-0-----0--1-1-1-|-0--0--0--0---|
    
               |-3-|
      Q  Q  Q  E E E   Q  Q  Q  Q    Q  Q  Q  Q
    |----------------|-------------|-------------||
    |----------------|-------------|-------------||
    |----------------|-------------|-------------||
    |-2--2--2--3-3-3-|-2--2--2--2--|-2--2--2--2--||
    |-2--2--2--3-3-3-|-2--2--2--2--|-2--2--2--2--||
    |-0--0--0--1-1-1-|-0--0--0--0--|-0--0--0--0--||
    
      PM----------------------------|
      S S S S S S S S S S S S S S S S
    |---------------------------------|
    |---------------------------------|
    |---------------------------------|
    |---------------------------------|
    |---------------------------------|
    |-0-0-0-0-0-0-0-0-0-0-0-0-0-0-0-0-|
    
                            PM------------------------|
      E E E E E E E E     E S S S S S S S S S S S S S S   E E E E E E E E
    |-----------------||--------------------------------|------------------|
    |-----------------||o-------------------------------|------------------|
    |-----------------||--------------------------------|------------------|
    |---7s8---7s8---7s||==8-----------------------------|---7s8---7s8---7s=|
    |---7s8---7s8---7s||o=8-----------------------------|---7s8---7s8---7s=|
    |-5-----x-----x---||----0-0-0-0-0-0-0-0-0-0-0-0-0-0-|-5-----x-----x----|
    
        PM------------------------|
      E S S S S S S S S S S S S S S   E E E E E E E E
    |-------------------------------|-----------------|
    |-------------------------------|-----------------|
    |-------------------------------|-----------------|
    |-8-----------------------------|---7s8---7s8---7s|
    |-8-----------------------------|---7s8---7s8---7s|
    |---0-0-0-0-0-0-0-0-0-0-0-0-0-0-|-5-----x-----x---|
    
        PM------------------------|
      E S S S S S S S S S S S S S S
    |--------------------------------|
    |--------------------------------|
    |--------------------------------|
    |-8------------------------------|
    |-8------------------------------|
    |---2-2-2-2-2-2-2-2-2-2-2-2-2-2--|
    
      1.
                          PM------------------------|
      E E E E E E E E   E S S S S S S S S S S S S S S   E E E E E E E E
    |-----------------|-------------------------------|------------------||
    |-----------------|-------------------------------|-----------------o||
    |-----------------|-------------------------------|------------------||
    |---5s4---5s4---5s|=4-----------------------------|---7s8---7s8---7--||
    |---5s4---5s4---5s|=4-----------------------------|---7s8---7s8---7-o||
    |-3-----x-----x---|---0-0-0-0-0-0-0-0-0-0-0-0-0-0-|-5-----x-----x----||
    
      2.
      E E E E E E E E   H    H      H    H
    |-----------------|-----------|-----------|
    |-----------------|-----------|-----------|
    |-----------------|-4---------|-----------|
    |---5s4---5s4---5-|-4----5----|-7----5----|
    |---5s4---5s4---5-|-2----5----|-7----5----|
    |-3-----x-----x---|------3----|-5----3----|
    
                                       7/8             4/4
      PM----------------------------|                       PM------------|
      S S S S S S S S S S S S S S S S   E E Q  Q  E     E E S S E E E S S E
    |---------------------------------|-------------||-----------------------|
    |---------------------------------|-------------||o----------------------|
    |---------------------------------|-------------||-----------------------|
    |---------------------------------|-------------||-----------------------|
    |-4-4-4-4-4-4-4-4-4-4-4-4-4-4-4-4-|-4-----------||o-8s5------------------|
    |-2-2-2-2-2-2-2-2-2-2-2-2-2-2-2-2-|-2-----------||--6s3-0-0-0-0-0-0-0-0--|
    
                                                                         2/4
          PM------------|       PM------------|       PM------------|
      E E S S E E E S S E   E E S S E E E S S E   E E S S E E E S S E     H
    |---------------------|---------------------|----------------------||------|
    |---------------------|---------------------|---------------------o||------|
    |---------------------|---------------------|----------------------||------|
    |---------------------|---------------------|----------------------||------|
    |-8s5-----------------|-8s5-----------------|-8s5-----------------o||-8----|
    |-6s3-0-0-0-0-0-0-0-0-|-6s3-0-0-0-0-0-0-0-0-|-6s3-0-0-0-0-0-0-0-0--||-6----|
    
       Verse 1, 2, 3
        $
       4/4
            PM------------|       PM------------|
        E E S S E E E S S E   E E S S E E E S S E
    ||----------------------|---------------------|
    ||o---------------------|---------------------|
    ||----------------------|---------------------|
    ||----------------------|---------------------|
    ||o-8s5-----------------|-8s5-----------------|
    ||--6s3-0-0-0-0-0-0-0-0-|-6s3-0-0-0-0-0-0-0-0-|
    
          PM------------|       PM------------|
      E E S S E E E S S E   E E S S E E E S S E
    |---------------------|----------------------|
    |---------------------|----------------------|
    |---------------------|----------------------|
    |---------------------|----------------------|
    |-8s5-----------------|-8s5------------------|
    |-6s3-0-0-0-0-0-0-0-0-|-6s3-1-1-1-0-0-0-0-0--|
    
          PM------------|       PM------------|
      E E S S E E E S S E   E E S S E E E S S E
    |---------------------|---------------------|
    |---------------------|---------------------|
    |---------------------|---------------------|
    |---------------------|---------------------|
    |-8s5-----------------|-8s5-----------------|
    |-6s3-0-0-0-0-0-0-0-0-|-6s3-0-0-0-0-0-0-0-0-|
    
          PM------------------------------------------------------|
      E E S S E E E S S E    S  S  S  S  S  S  S  S S S S S S S S S
    |---------------------|------------------------------------------|
    |---------------------|------------------------------------------|
    |---------------------|------------------------------------------|
    |---------------------|------------------------------------------|
    |-8s5-----------------|------------------------------------------|
    |-6s3-0-0-0-0-0-0-0-0-|-10-10-10-10-10-10-10-10-6-6-6-6-6-6-6-6--|
    
          PM------------|       PM------------|
      E E S S E E E S S E   E E S S E E E S S E
    |---------------------|---------------------|
    |---------------------|---------------------|
    |---------------------|---------------------|
    |---------------------|---------------------|
    |-8s5-----------------|-8s5-----------------|
    |-6s3-0-0-0-0-0-0-0-0-|-6s3-0-0-0-0-0-0-0-0-|
    
          PM------------|       PM------------|
      E E S S E E E S S E   E E S S E E E S S E
    |---------------------|----------------------|
    |---------------------|----------------------|
    |---------------------|----------------------|
    |---------------------|----------------------|
    |-8s5-----------------|-8s5------------------|
    |-6s3-0-0-0-0-0-0-0-0-|-6s3-1-1-1-0-0-0-0-0--|
    
          PM------------|       PM------------|
      E E S S E E E S S E   E E S S E E E S S E
    |---------------------|---------------------|
    |---------------------|---------------------|
    |---------------------|---------------------|
    |---------------------|---------------------|
    |-8s5-----------------|-8s5-----------------|
    |-6s3-0-0-0-0-0-0-0-0-|-6s3-0-0-0-0-0-0-0-0-|
    
          PM------------------------------------------------------|
      E E S S E E E S S E    S  S  S  S  S  S  S  S S S S S S S S S
    |---------------------|------------------------------------------|
    |---------------------|------------------------------------------|
    |---------------------|------------------------------------------|
    |---------------------|------------------------------------------|
    |-8s5-----------------|------------------------------------------|
    |-6s3-0-0-0-0-0-0-0-0-|-10-10-10-10-10-10-10-10-6-6-6-6-6-6-6-6--|
    
                              PM-------------------------------
      H    H      H    H      S S S S S S S S S S S S S S S S
    |-----------|-----------|---------------------------------|
    |-----------|-----------|---------------------------------|
    |-4---------|-----------|---------------------------------|
    |-4----5----|-7----5----|---------------------------------|
    |-2----5----|-7----5----|-4-4-4-4-4-4-4-4-4-4-4-4-4-4-4-4-|
    |------3----|-5----3----|-2-2-2-2-2-2-2-2-2-2-2-2-2-2-2-2-|
    
                           To Coda
     -----------------------------|
      S S S S S S S S S S S S S S E
    |-------------------------------|
    |-------------------------------|
    |-------------------------------|
    |-------------------------------|
    |-4-4-4-4-4-4-4-4-4-4-4-4-4-4-4-|
    |-2-2-2-2-2-2-2-2-2-2-2-2-2-2-2-|
    
                              PM----------------------------|
      H    H      H    H      S S S S S S S S S S S S S S S S   E E Q H
    |-----------|-----------|---------------------------------|---------|
    |-----------|-----------|---------------------------------|---------|
    |-4---------|-----------|---------------------------------|---------|
    |-4----5----|-7----5----|---------------------------------|---------|
    |-2----5----|-7----5----|-4-4-4-4-4-4-4-4-4-4-4-4-4-4-4-4-|-4-------|
    |------3----|-5----3----|-2-2-2-2-2-2-2-2-2-2-2-2-2-2-2-2-|-2-------|
    
      1.
                             |-3-|
      Q  Q  Q  Q    Q  Q  Q  E E E   Q  Q  Q  Q
    |-------------|----------------|-------------|
    |-------------|----------------|-------------|
    |-------------|----------------|-------------|
    |-2-----2-----|-2-----2--3-3-3-|-2--2--2--2--|
    |-2-----2-----|-2-----2--3-3-3-|-2--2--2--2--|
    |-0-----0-----|-0-----0--1-1-1-|-0--0--0--0--|
    
                      2.
                      PM----------------------------|
      Q  Q  Q  Q      S S S S S S S S S S S S S S S S
    |--------------||----------------------------------||
    |-------------o||----------------------------------||
    |--------------||----------------------------------||
    |-2--2--2--2---||----------------------------------||
    |-2--2--2--2--o||-4-4-4-4-4-4-4-4-4-4-4-4-4-4-4-4--||
    |-0--0--0--0---||-2-2-2-2-2-2-2-2-2-2-2-2-2-2-2-2--||
    
                           1.,2.,3.                4.
                                      F5    Bb5            F5    Bb5
        Gtr II
        W                   H         S S E Q      H       S S E Q
                                      | | | |              | | | |
                                      / / / /              / / / /
        Gtr I
        PM|     PM  PM  PM      PM  PM    PM           PM  PM  PM
        E E S S E E E E E   S S E E E S S E Q      S S E E E E E Q
    ||--------------------|---------------------||------------------||
    ||o-------------------|--------------------o||------------------||
    ||--------------------|---------------------||------------------||
    ||--------------------|---------------------||---------------4--||
    ||o-----7-7---8---5---|-7-7---8---7-7---8--o||-7-7---3---5---2--||
    ||--0-0-----0---0---0-|-----0---0-----0-6---||-----0---0---0----||
    
                           1.,2.,3.                 4.
        E5                             F5    Bb5     E5       F5    Bb5
        W                   +H         S S E Q       +H       S S E Q
        |                    |         | | | |        |       | | | |
        /                    /         / / / /        /       / / / /
        PM|     PM  PM  PM       PM  PM    PM             PM  PM  PM
        E E S S E E E E E    S S E E E S S E Q        S S E E E E E Q
    ||--------------------|----------------------||-------------------||
    ||o-------------------|---------------------o||-------------------||
    ||--------------------|----------------------||-------------------||
    ||--------------------|----------------------||-----------------4-||
    ||o-----7-7---8---5---|--7-7---8---7-7---8--o||---7-7---3---5---2-||
    ||--0-0-----0---0---0-|------0---0-----0-6---||-------0---0---0---||
    
     Bridge
      PM|     PM  PM  PM      PM  PM    PM
      E E S S E E E E E   S S E E E S S E Q
    |-------------------|--------------------|
    |-------------------|--------------------|
    |-------------------|--------------------|
    |-------------------|--------------------|
    |-----7-7---8---5---|-7-7---8---7-7---8--|
    |-0-0-----0---0---0-|-----0---0-----0-6--|
    
      PM|     PM  PM  PM      PM  PM    PM
      E E S S E E E E E   S S E E E S S E Q
    |-------------------|--------------------|
    |-------------------|--------------------|
    |-------------------|--------------------|
    |-------------------|--------------------|
    |-----7-7---8---5---|-7-7---8---7-7---8--|
    |-0-0-----0---0---0-|-----0---0-----0-6--|
    
      PM|     PM  PM  PM      PM  PM    PM
      E E S S E E E E E   S S E E E S S E Q
    |-------------------|--------------------|
    |-------------------|--------------------|
    |-------------------|--------------------|
    |-------------------|--------------------|
    |-----7-7---8---5---|-7-7---8---7-7---8--|
    |-0-0-----0---0---0-|-----0---0-----0-6--|
    
      PM|     PM  PM  PM      PM  PM  PM
      E E S S E E E E E   S S E E E E E Q
    |-------------------|-------------------|
    |-------------------|-------------------|
    |-------------------|-------------------|
    |-------------------|---------------4---|
    |-----7-7---8---5---|-7-7---3---5---2---|
    |-0-0-----0---0---0-|-----0---0---0-----|
    
     7/8          4/4
      E E E H      H    Q  E  E
    |------------|--------------||
    |------------|--------------||
    |-4----------|---------4---||
    |-4----------|---------4---||
    |-2----------|---------2---||
    |------------|--------------||
    
      Gtr I
       S  S  S  S  S  S  S  S  S  S  S  S  S  S  S  S
       |  |  |  |  |  |  |  |  |  |  |  |  |  |  |  |
       o  /  /  /  /  /  /  /  /  /  /  /  /  /  /  /
      Gtr II
       S  S  S  S  S  S  S  S  S  S  S  S  S  S  S  S
    |-15p12-12-15-15p14-12-15-15p14-12-15-15p14-12-12-|
    |-------------------------------------------------|
    |-------------------------------------------------|
    |-------------------------------------------------|
    |-------------------------------------------------|
    |-------------------------------------------------|
    
       S  S  S  S  S  S  S  S  S  S  S  S  S  S  S  S    S  S  S  S  S  S  S  S  S  S  S  S  S  S  S  S
       |  |  |  |  |  |  |  |  |  |  |  |  |  |  |  |    |  |  |  |  |  |  |  |  |  |  |  |  |  |  |  |
       /  /  /  /  /  /  /  /  /  /  /  /  /  /  /  /    /  /  /  /  /  /  /  /  /  /  /  /  /  /  /  /
       S  S  S  S  S  S  S  S  S  S  S  S  S  S  S  S    S  S  S  S  S  S  S  S  S  S  S  S  S  S  S  S
    |-15p14-12-15-15p14-12-15-15p14-12-15-15p14-12-15-|-15-15-15-15-15-14p12-15-15-15-15-15-15p14-12-12-|
    |-------------------------------------------------|-------------------------------------------------|
    |-------------------------------------------------|-------------------------------------------------|
    |-------------------------------------------------|-------------------------------------------------|
    |-------------------------------------------------|-------------------------------------------------|
    |-------------------------------------------------|-------------------------------------------------|
    
       S  S  S  S  S  S  S  S  S    S S S S   S  S  S
       |  |  |  |  |  |  |  |  |    | | | |   |  |  |
       /  /  /  /  /  /  /  /  /    / / / /   /  /  /
       S  S  S  S  S  S  S  S  Q          S   S  S  S
    |-15-14-12-12-15-14-12-15-15b17----------------14-|
    |-------------------------------------------15----|
    |---------------------------------------/16-------|
    |-------------------------------------------------|
    |-------------------------------------------------|
    |-------------------------------------------------|
    
       S S  S S  S S  S  S  S  S  S  S S  S  S S
       | |  | |  | |  |  |  |  |  |  | |  |  | |
       / /  / /  / /  /  /  /  /  /  / /  /  / /
       E    E    E    S  S  S  S  S  S S  E.
    |-17---15---14---15p14-15p14----14-x---------|
    |----------------------------17------17-----|
    |--------------------------------------------|
    |--------------------------------------------|
    |--------------------------------------------|
    |--------------------------------------------|
    
       S  S  S  S   S   S  S  S   S   S S S  S S  S S
       |  |  |  |   |   |  |  |   |   | | |  | |  | |
       /  /  /  /   /   /  /  /   /   / / /  / /  / /
       S  S  S  S  +S   S  S  S  +S   S E    S S  E
    |-------------------------------------------------|
    |-15s14-12-14-(14)-12s10h12-(12)-10s9---10p9------|
    |--------------------------------------------11---|
    |-------------------------------------------------|
    |-------------------------------------------------|
    |-------------------------------------------------|
    
      S S  S S  S S  S S S S  S S  S S  S S
      | |  | |  | |  | | | |  | |  | |  | |
      / /  / /  / /  / / / /  / /  / /  / /
      E    E    S S  E   E    E    S S  E
    |---------------------------------------|
    |-----10---10p9----------10---10p9------|
    |-9-------------11---9-------------11---|
    |---------------------------------------|
    |---------------------------------------|
    |---------------------------------------|
    
      S S  S S  S S  S S S S  S S  S S  S S
      | |  | |  | |  | | | |  | |  | |  | |
      / /  / /  / /  / / / /  / /  / /  / /
      E    E    S S  E   E    E    S S  E
    |---------------------------------------|
    |-----10---10p9----------10---10p9------|
    |-9-------------11---9-------------11---|
    |---------------------------------------|
    |---------------------------------------|
    |---------------------------------------|
    
       S S  S S  S  S S S  S S  S S  S  S S S
       | |  | |  |  | | |  | |  | |  |  | | |
       o /  / /  /  / / /  / /  / /  /  / / /
       E    E    S  S E    E    E    S  S E
    |-----------------------------------------|
    |------12---12p10p9--------12---12p10p9---|
    |-11------------------11------------------|
    |-----------------------------------------|
    |-----------------------------------------|
    |-----------------------------------------|
    
       S S S S S  S  S  S  S S S S S  S     S S
       | | | | |  |  |  |  | | | | |  |     | |
       o / / / /  /  /  /  / / / / /  /     / /
       E   E   S  S  S  S  E   E   S  T  T  E
    |------9---9---------------9---9------------|
    |------------12p10---------------12p10------|
    |-11---------------11-11---------------11---|
    |-------------------------------------------|
    |-------------------------------------------|
    |-------------------------------------------|
    
       S S  S S  S  S S S  S S  S S  S  S S S
       | |  | |  |  | | |  | |  | |  |  | | |
       / /  / /  /  / / /  / /  / /  /  / / /
       E    E    S  S E    E    E    S  S E
    |------------------------------------------|
    |------12---12p10p9--------12---12p10p9----|
    |-11------------------11-------------------|
    |------------------------------------------|
    |------------------------------------------|
    |------------------------------------------|
    
       S  S  S S S  S     S S  S S S S S  S  S  S
       |  |  | | |  |     | |  | | | | |  |  |  |
       /  /  / / /  /     / /  / / / / /  /  /  /
       S  S  E   S  T  T  E    E   E   S  S  S  S
    |----(9)-9---9-----------------9---9----------|
    |--------------12p10-----------------12p10----|
    |-11-----------------11---11---------------11-|
    
    Узнай ВСЕ о своем друге в ВК или FB
    |---------------------------------------------| |---------------------------------------------| |---------------------------------------------| S S S S S S S S S S S S S S S S | | | | | | | | | | | | | | | | / / / / / / / / / / / / / / / / E. +S +E. +S E S S S S E |-12b14r====(12)b14==(12)r====(12)-9---9h12-12p9-9----| |-----------------------------------------------------| |-----------------------------------------------------| |-----------------------------------------------------| |-----------------------------------------------------| |-----------------------------------------------------| S S S S S S S S S S S S S S S S | | | | | | | | | | | | | | | | / / / / / / / / / / / / / / / / S S S S S S S S S S S S S S S S |-12p9-9-9-12p9-------9-12p9-------9-12p9--------| |---------------12b14--------12b14--------(12)---| |------------------------------------------------| |------------------------------------------------| |------------------------------------------------| |------------------------------------------------| S S S S S S S S S S S S S S S S | | | | | | | | | | | | | | | | / / / / / / / / / / / / / / / / S S E S S S S S S S S S S S S |--------------------------------------| |-10p7-0---11p8-0-0-12p9-0-0-13p10-0-0-| |--------------------------------------| |--------------------------------------| |--------------------------------------| |--------------------------------------| S S E S S E S S E S S E | | | | | | | | | | | | o / / o / / o / / o / / S S S S S S S S S S S S S S S S |-----------------------------------------|| |-14p11-0-0-15p12-0-0-16p13-0-0-17p14-0-0-|| |-----------------------------------------|| |-----------------------------------------|| |-----------------------------------------|| |-----------------------------------------|| | | Gt | W |-----------------------------------------|| |-----------------------------------------|| |-----------------------------------------|| |-----------------------------------------|| |-----------------------------------------|| |-----------------------------------------|| W E. S +E E +S E. E S S |-12--------12----(12)---12------(12)-12--------12--------------| |-15b17-----15b17-(15)---15b17---(15)-15b17-----15b17r==(15)-12-| |---------------------------------------------------------------| |---------------------------------------------------------------| |---------------------------------------------------------------| |---------------------------------------------------------------| | |r I | PM--------------------------------------------------------| | S S S S S S S S S S S S S S S S |---------------------------------------------------------------| |---------------------------------------------------------------| |---------------------------------------------------------------| |---------------------------------------------------------------| |---------------------------------------------------------------| |--0----0-0--0------0--0--0----0---0---0----0-0--0----0---0---0-| Q +Q +E +E E E |---------------------------14-| |-13---(13)---(13)(13)-/15----| |------------------------------| |------------------------------| |------------------------------| |------------------------------| | | E E E E E E E E |------------------------------| |------------------------------| |------------------------------| |----7s==8------7s==8--------7s| |----7s==8------7s==8--------7s| |--5--------x-------------x----| ~~~ E E E E +Q E +S S H. E E |-15-17---17---17b19---(17)-------17b19r==(17)-14-|-15------------14-15--| |-------------------------------------------------|----------------------| |-------------------------------------------------|----------------------| |-------------------------------------------------|----------------------| |-------------------------------------------------|----------------------| |-------------------------------------------------|----------------------| | | PM---------------------------------------| | E S S S S S S S S S S S S S S E E E E E E E E |-------------------------------------------------|----------------------| |-------------------------------------------------|----------------------| |-------------------------------------------------|----------------------| |--8----------------------------------------------|-----7s8---7s8-----7s=| |--8----------------------------------------------|-----7s8---7s8-----7s=| |-----0-0--0-0--0----0---0--0-0-0--0----0---0---0-|--5------x------x-----| |----3----| E E E S S S S E E E E S S E E E Q E E |-17-15---14---15p14-15p14------14-------------|-------------17---------------| |--------------------------17--------17---14---|-15p14----15------------------| |----------------------------------------------|-------16-------14---14-16b18-| |----------------------------------------------|------------------------------| |----------------------------------------------|------------------------------| |----------------------------------------------|------------------------------| | | PM-------------------------------------| | E S S S S S S S S S S S S S S E E E E E E E E |----------------------------------------------|------------------------------| |----------------------------------------------|------------------------------| |----------------------------------------------|------------------------------| |--8-------------------------------------------|--------7s=8-----7s8-----7s===| |--8-------------------------------------------|--------7s=8-----7s8-----7s===| |-----0-0--0-0--0--0--0--0--0-0--0-0----0----0-|--5-----------x-------x-------| +E E S S S S S S S S S S S S |------------------------------------------------| |------14---17p14----14-17p14----14-17p14----14--| |-(16)------------16----------16----------16-----| |------------------------------------------------| |------------------------------------------------| |------------------------------------------------| | | PM-----------------------------------| | E S S S S S S S S S S S S S S |------------------------------------------------| |------------------------------------------------| |------------------------------------------------| |---8--------------------------------------------| |---8--------------------------------------------| |-------2-2--2--2--2--2--2--2--2--2--2--2--2--2--| S S S +S +S +S E H |--------------------------------17b19-------| |-17p14-17b19==(17)-(17)r(17)p14-------------| |--------------------------------------------| |--------------------------------------------| |--------------------------------------------| |--------------------------------------------| | | E E E E E E E E |--------------------------------------------| |--------------------------------------------| |--------------------------------------------| |--------5s===========4-----------5s===4---5s| |--------5s===========4-----------5s===4---5s| |--3---------------------------x---------x---| E Q. Q Q Q. E +H |-------------------------------------------|----------------------------| |---15--------------15----------15----------|-15--------15----(15)-------| |---14b16-----------14b16-------14b16-------|-14b16-----14b16-(14)-------| |-------------------------------------------|----------------------------| |-------------------------------------------|----------------------------| |-------------------------------------------|----------------------------| | | PM-----------------------------------| | E S S S S S S S S S S S S S S E E E E E E E E |-------------------------------------------|----------------------------| |-------------------------------------------|----------------------------| |-------------------------------------------|----------------------------| |-4-----------------------------------------|-------7s8---------7s8---7s=| |-4-----------------------------------------|-------7s8---------7s8---7s=| |----0----0-0-0-0-0--0----0-0-0--0----0-0-0-|--5---------x----------x----| S S S S S S S S S S S S S S S S |-15-15-15-15-15-15-15-12-15-15-15-15-15-15p12-12-| |-------------------------------------------------| |-------------------------------------------------| |-------------------------------------------------| |-------------------------------------------------| |-------------------------------------------------| | | PM------------------------------------| | E S S S S S S S S S S S S S S |-------------------------------------------------| |-------------------------------------------------| |-------------------------------------------------| |--8----------------------------------------------| |--8----------------------------------------------| |--------0--0--0--0--0--0--0--0--0--0--0--0--0--0-| ~~~~~ S S S S S S S S Q +E S S |-15-15-15-12-15-15-12-15-15b17---(15)-------| |---------------------------------------10s12-| |---------------------------------------------| |---------------------------------------------| |---------------------------------------------| |---------------------------------------------| | | E E E E E E E E |---------------------------------------------| |---------------------------------------------| |---------------------------------------------| |--------7s====8-----------7s===8--------7s===| |--------7s====8-----------7s===8--------7s===| |--5-----------------x--------------x---------| S S S S S S S S a Q S S S S |-10-10-12-12s14-14-15-15-15s17-------15-15-17-17s| |-------------------------------------------------| |-------------------------------------------------| |-------------------------------------------------| |-------------------------------------------------| |-------------------------------------------------| | | PM------------------------------------| | E S S S S S S S S S S S S S S |-------------------------------------------------| |-------------------------------------------------| |-------------------------------------------------| |--8----------------------------------------------| |--8----------------------------------------------| |--------0--0--0--0--0--0-----0-0-0-0--0--0--0--0-| S S S S S S S S S S S S S S S S |-19-19-19-17-17-17-19-19s20-20-20-20-19-19-20-20S==| |---------------------------------------------------| |---------------------------------------------------| |---------------------------------------------------| |---------------------------------------------------| |---------------------------------------------------| | | E E E E E E E E |---------------------------------------------------| |---------------------------------------------------| |---------------------------------------------------| |--------7s====8-----------7s====8-----------7s=====| |--------7s====8-----------7s====8-----------7s=====| |--5-----------------x-----------------x------------| |--------5---------| |--------5---------| S S S S S S S S S S S S S S S S S S |-22-22-20-16-22-20-18-18-21-19---17---17---20-18-16---16---19---17-| |---------------------------------------------------------------------| |---------------------------------------------------------------------| |---------------------------------------------------------------------| |---------------------------------------------------------------------| |---------------------------------------------------------------------| | | E S S S S S S S S S S S S S S |---------------------------------------------------------------------| |---------------------------------------------------------------------| |---------------------------------------------------------------------| |--8------------------------------------------------------------------| |--8------------------------------------------------------------------| |--------2--2--2--2--2--2--2----2----2-----2-----2----2-----2----2----| |------5-------| |------5-------| |-------6-------| |--3--| S S S S S S S S S S S S S S S S S S S +E |-15-15-18---16-14-14-17-15---13-13-16p14p12-15p13p12-14-12-10-(10)-| |------------------------------------------------------------------------| |------------------------------------------------------------------------| |------------------------------------------------------------------------| |------------------------------------------------------------------------| |------------------------------------------------------------------------| | | E E E E E E E E |------------------------------------------------------------------------| |------------------------------------------------------------------------| |------------------------------------------------------------------------| |-----------5s=======4------------------5s========4-------------------5--| |-----------5s=======4------------------5s========4-------------------5--| |--3--------------------------x-----------------------------x------------| B5 G5 A5 G5 Gtr I H H H H | | | | / / / / W H Q E E |-----------|-------------| |-----------|-----------0-| |-----------|-------------| |-----------|-------------| |-----------|-------------| |-----------|-------------| S S S S S S S S S S S S S S S S | | | | | | | | | | | | | | | | o / / / / / / / / / / / / / / / T T T T T T T T |-------6--------| |-------6--------| |-------6--------| |-------6--------| S S S S S S S S S S S S S S S S S S S S S S S S |----------------------------------------------------------------------------------| |-12p10p==7-12p10p==7-13p10p==7-13p10p==7-14p7h==10-14p7h==10-15p7h==10-15p7h==10--| |----------------------------------------------------------------------------------| |----------------------------------------------------------------------------------| |----------------------------------------------------------------------------------| |----------------------------------------------------------------------------------| S S S S S S S S S S S S S S S S | | | | | | | | | | | | | | | | / / / / / / / / / / / / / / / / T T T T T T |-------6--------| |-------6--------| |-------6--------| S S S S S S S S S S S S S S S S S S Q |------------------------------------------------------------------------| |-16p7h==10-16p7h==10-16p7h==10-16p7h==10-16p7h==10-16p7h==10-16--------| |------------------------------------------------------------------------| |------------------------------------------------------------------------| |------------------------------------------------------------------------| |------------------------------------------------------------------------| Gtrs I, II PM--------| PM--------| H H H H E S S +S S E E S S +S S E |-----------|-----------|-----------------------------| |-----------|-----------|-----------------------------| |-4---------|-----------|-----------------------------| |-4----5----|-7----5----|-----------------------------| |-2----5----|-7----5----|-4-4-4-(4)-4-4-5-5-5-(5)-5-5-| |------3----|-5----3----|-2-2-2-(2)-2-2-3-3-3-(3)-3-3-| PM--------| PM--------| E S S +S S E E S S +S S E |------------------------------|| |------------------------------|| |------------------------------|| |------------------------------|| |-7-7-7-(7)-7-7-8-8-8-(8)-8-8--|| |-5-5-5-(5)-5-5-6-6-6-(6)-6-6--|| PM| PM PM PM PM PM PM E E S S E E E E E S S E E E S S E Q ||--------------------|-------------------| ||o-------------------|-------------------| ||--------------------|-------------------| ||--------------------|-------------------| ||o-----7-7---8---5---|-7-7---8---7-7---8-| ||--0-0-----0---0---0-|-----0---0-----0-6-| 1. PM| PM PM PM PM PM PM E E S S E E E E E S S E E E S S E Q |-------------------|---------------------|| |-------------------|--------------------o|| |-------------------|---------------------|| |-------------------|-----------------7---|| |-----7-7---8---5---|-7-7---8---7-7---5--o|| |-0-0-----0---0---0-|-----0---0-----0-----|| 2. PM PM PM S S E E E S S E Q H H H H |--------------------|-----------|-----------| |--------------------|-----------|-----------| |--------------------|-4---------|-----------| |-----------------4--|-4----5----|-7----5----| |-7-7---3---5-5---2--|-2----5----|-7----5----| |-----0---0-----0----|------3----|-5----3----| D.S. al Coda PM----------------------------| S S S S S S S S S S S S S S S S |-----------------------------------|| |-----------------------------------|| |-----------------------------------|| |-----------------------------------|| |-4-4-4-4-4-4-4-4-4-4-4-4-4-4-4-4---|| |-2-2-2-2-2-2-2-2-2-2-2-2-2-2-2-2---|| & PM----------------------------| E Q E E Q E E Q E E Q E S S S S S S S S S S S S S S S S |---------------|---------------|----------------------------------| |---------------|---------------|----------------------------------| |-x-4--4--------|---------------|----------------------------------| |-x-4--4-x-5--5-|-x-7--7-x-5--5-|----------------------------------| |-x-2--2-x-5--5-|-x-7--7-x-5--5-|-4-4-4-4-4-4-4-4-4-4-4-4-4-4-4-4--| |--------x-3--3-|-x-5--5-x-3--3-|-2-2-2-2-2-2-2-2-2-2-2-2-2-2-2-2--| |-3-| E E Q H Q Q Q Q Q Q Q E E E E E Q H |-------------|-------------|----------------|------------*| |-------------|-------------|----------------|------------*| |-------------|-------------|----------------|------------*| |-------------|-2-----2-----|-2-----2--3-3-3-|-3----------*| |-4-----------|-2-----2-----|-2-----2--3-3-3-|-3----------*| |-2-----------|-0-----0-----|-0-----0--1-1-1-|-1----------*| Duration Legend --------------- W - whole; H - half; Q - quarter; E - 8th; S - 16th; T - 32nd; X - 64th; a - acciaccatura + - note tied to previous; . - note dotted; .. - note double dotted Uncapitalized letters represent notes that are staccato (1/2 duration) Irregular groupings are notated above the duration line Duration letters will always appear directly above the note/fret number it represents the duration for. Duration letters with no fret number below them represent rests. Multi- bar rests are notated in the form Wxn, where n is the number of bars to rest for. Low melody durations appear below the staff Tablature Legend ---------------- h - hammer-on p - pull-off b - bend pb - pre-bend r - bend release (if no number after the r, then release immediately) / - slide into or out of (from/to "nowhere") s - legato slide S - shift slide - natural harmonic [n] - artificial harmonic n(n) - tapped harmonic ~ - vibrato tr - trill T - tap TP - trem. picking PM - palm muting n/ - tremolo bar dip; n = amount to dip n - tremolo bar down n/ - tremolo bar up /n - tremolo bar inverted dip = - hold bend; also acts as connecting device for hammers/pulls <> - volume swell (louder/softer) x - on rhythm slash represents muted slash o - on rhythm slash represents single note slash Misc Legend ----------- | - bar || - double bar ||o - repeat start o|| - repeat end *| - double bar (ending) : - bar (freetime) $ - Segno & - Coda Tempo markers - = BPM(8/16=s8/s16), where s8 = swing 8ths, s16 = swing 16ths *************************************************************************************** * Generated using Power Tab Editor by Brad Larsen - http://powertab.guitarnetwork.org * ***************************************************************************************

    http://www.powertabs.net
    найти лекарство
    список лекарств






    О сайтеАккордыХит-парадПоискУроки ФорумыИщу песню
    ПрограммыСвежачок-сПодпискаСтатьи
    Яндекс.Метрика