Табулатура Metallica | Creeping Death  (2) гитара табулатуры уроки тексты песен Metallica текст lyrics песня аккорды песни ноты нота электрогитара струна  
   А Б В Г Д Е Ж З И К Л М Н О П Р С Т У Ф Х Ч Ш Ы Э Ю Я       Разные песни
1-9 A B C D E F G H I J K L M N O P Q R S T U V W Y Z      Все исполнители in english

    



группа Metallica, Табулатура песни Creeping Death (2)

Работа в Европе для граждан РФ, Украины, СНГ

  • минимальная зарплата $500.
  • виза и контракт на полгода, возможно продление
  • проживание оплачивает работодатель
  • нужен только загранпаспорт
  • оформление 190 €
  • данное предложение - отличная возможность эмигрировать в Европу и закрепиться здесь навсегда.

  • Мы свяжемся с Вами по WhatsApp или Viber и ответим на любые вопросы.
    на нашем сайте можно почитать подробнее »

    Группа: Metallica - другие аккорды (225),   о группе (32 статей),   диски (11),   фотографии (49)
    Табулатура песни: Creeping Death (2)
    Просмотров: 4203
    Прислал: DiaSpar (diaspar@i.com.ua)




        
    #----------------------------------PLEASE NOTE---------------------------------#
    #This file is the author's own work and represents their interpretation of the #
    #song. You may only use this file for private study, scholarship, or research. #
    #------------------------------------------------------------------------------##
                                     CREEPING DEATH
                                As recorded by Metallica
                          (From the 1984 EP RIDE THE LIGHTING)
    Words and Music by Hetfield/Ulrich/Burton/Hammett
              E5                   D5                   A5                   G5
          x 7 9 9 x x          x 5 7 7 x x          x 0 2 2 x x        x 10 12 12 x x
             G5III               E5open                 B5                   C#5
          3 5 5 x x x          0 2 2 x x x          x 2 4 4 x x          x 4 6 6 x x
              F#5                  C5                   F5                   F5I
          2 4 4 x x x          x 3 5 5 x x         x 8 10 10 x x         1 3 3 x x x
             D/F#
          2 5 x x x x
       Intro
        Fast Rock Q=184
        E5                                          D5
       4/4
        Gtrs I, II
        PM----|                       PM----|
        E E E E E E Q    +W           E E E E E E E E   +W
    ||-----------------|------------|-----------------|---------||
    ||o----------------|------------|-----------------|--------o||
    ||--------------9--|-(9)--------|-------------9-7-|-(7)-----||
    ||--------------9--|-(9)--------|-------------9-7-|-(7)-----||
    ||o-------------7--|-(7)--------|-------------7-5-|-(5)----o||
    ||--0-0-0-0-0------|------------|-0-0-0-0-0-------|---------||
    
        Gtrs I, II
        PM----|                             PM----|
        E E E E E E  Q     +H      E E Q    E E E E E E  E E   +H     E E Q
    ||------------------|-----------------|------------------|-----------------||
    ||o-----------------|-----------------|------------------|----------------o||
    ||------------------|-----------------|------------------|-----------------||
    ||---------------9--|--(9)-----9------|--------------9-7-|-(7)----7--------||
    ||o-------------10--|-(10)----10------|-------------10-9-|-(9)----9-------o||
    ||--0-0-0-0-0-------|-----------------|-0-0-0-0-0--------|-----------------||
    |
    |   Gtr III
    |   PM----|                             PM----|
    |   E E E E E E  Q     +H      E E Q    E E E E E E  E E   +H     E E Q
    ||------------------|-----------------|------------------|-----------------||
    ||o-----------------|-----------------|------------------|----------------o||
    ||---------------9--|--(9)-----9------|--------------9-7-|-(7)----7--------||
    ||---------------9--|--(9)-----9------|--------------9-7-|-(7)----7--------||
    ||o--------------7--|--(7)-----7------|--------------7-5-|-(5)----5-------o||
    ||--0-0-0-0-0-------|-----------------|-0-0-0-0-0--------|-----------------||
    
         A5 G5 D/F# E5open                    N.C.
                    Gtr II
      W             Q   Q   H         W
                    |
                    /
      Gtrs I, II
                    PM|   PM|   PM    PM|   PM
      Q  Q  Q  Q    E E E E E E E E   E E E E E E S S S S
    |-------------|-----------------|----------------------|
    |-------------|-----------------|----------------------|
    |-------------|-----------------|----------------------|
    |-------------|-----2-----2---2-|-----2----------------|
    |----7--5--5--|-----2-----2---2-|-----2---2-3-2h3p2p0--|
    |----5--3--2--|-0-0---0-0---0---|-0-0---0--------------|
    
        E5                        N.C.
        PM|   PM|   PM    PM|   PM
        E E E E E E E E   E E E E E E S S S S  3x
    ||------------------|----------------------||
    ||o-----------------|---------------------o||
    ||------------------|----------------------||
    ||------2-----2---2-|-----2----------------||
    ||o-----2-----2---2-|-----2---2-3-2h3p2p0-o||
    ||--0-0---0-0---0---|-0-0---0--------------||
    
        E5                        N.C.
        Gtrs I, II
        PM|   PM|   PM    PM|   PM
        E E E E E E E E   E E E E E E S S S S  4x
    ||------------------|----------------------||
    ||o-----------------|---------------------o||
    ||------------------|----------------------||
    ||------2-----2---2-|-----2----------------||
    ||o-----2-----2---2-|-----2---2-3-2h3p2p0-o||
    ||--0-0---0-0---0---|-0-0---0--------------||
    
          N.C.G5 N.C.G5   N.C.
          PM|    PM|      PM------------|
          E E Q  E E Q    E E E E E E E E  4x
    |-||----------------|------------------||
    |-||o---------------|-----------------o||
    |-||----------------|------------------||
    |-||----------------|------------------||
    |-||o-----5------5--|-----------------o||
    |-||--0-0-3--0-0-3--|-0-0-2-2-2-2-2-2--||
    
        E5                        N.C.                E5
        PM|   PM|   PM    PM|   PM
        E E E E E E E E   E E E E E E S S S S         W          +W
    ||------------------|----------------------||-||-----------|--------|
    ||o-----------------|---------------------o||-||o----------|--------|
    ||------------------|----------------------||-||-----------|--------|
    ||------2-----2---2-|-----2----------------||-||--2--------|-(2)----|
    ||o-----2-----2---2-|-----2---2-3-2h3p2p0-o||-||o-2--------|-(2)----|
    ||--0-0---0-0---0---|-0-0---0--------------||-||--0--------|-(0)----|
    
                                    1st, 2nd Verse
                        B5 C#5F#5    E5                        N.C.
                                     PM|   PM|   PM    PM|   PM
      +W           +Q   Q  Q  Q      E E E E E E E E   E E E E E E S S S S    8x
    |------------|---------------||------------------|------------------------||
    |------------|---------------||o-----------------|-----------------------o||
    |------------|------4--6-----||------------------|------------------------||
    |-(2)--------|-(2)--4--6--4--||------2-----2---2-|-----2------------------||
    |-(2)--------|-(2)--2--4--4--||o-----2-----2---2-|-----2---2-3-2h3p2p0---o||
    |-(0)--------|-(0)--------2--||--0-0---0-0---0---|-0-0---0----------------||
    
                                           Chorus
            G5 N.C.G5   N.C.                E5                    C5
        PM|    PM|      PM------------|                     PM--|
        E E Q  E E Q    E E E E E E E E  4x W          +Q   E E E Q  E
    ||----------------|------------------||----------|------------------|
    ||o---------------|-----------------o||----------|------------------|
    ||----------------|------------------||-9--------|-(9)--------5--7--|
    ||----------------|------------------||-9--------|-(9)--------5--7--|
    ||o-----5------5--|-----------------o||-7--------|-(7)--------3--5--|
    ||--0-0-3--0-0-3--|-0-0-2-2-2-2-2-2--||----------|------0-0-0-------|
    
                              F5      E5
                                                      PM--|
      +W           +H      a   H      W          +Q   E E E Q  E
    |------------|------------------|----------|-----------------|
    |------------|------------------|----------|-----------------|
    |-(7)--------|-(7)----(7)S10----|-9--------|-(9)--------5--7-|
    |-(7)--------|-(7)----(7)S10----|-9--------|-(9)--------5--7-|
    |-(5)--------|-(5)----(5)S=8----|-7--------|-(7)--------3--5-|
    |------------|------------------|----------|------0-0-0------|
    
                       F5    G5           E5                    C5 D5
                                                          PM--|
      +W            a   H     H        a  W          +Q   E E E Q  E
    |------------|-----------------|---------------|-------------------|
    |------------|-----------------|---------------|-------------------|
    |-(7)--------|-(7)S10----12----|-(12)S9--------|-(9)--------5--7---|
    |-(7)--------|-(7)S10----12----|-(12)S9--------|-(9)--------5--7---|
    |-(5)--------|-(5)S=8----10----|-(10)S7--------|-(7)--------3--5---|
    |------------|-----------------|---------------|------0-0-0--------|
    
                              F5      E5                    C5 D5
                                                      PM--|
      +W           +H      a   H      W          +Q   E E E Q  E
    |------------|------------------|----------|-----------------|
    |------------|------------------|----------|-----------------|
    |-(7)--------|-(7)----(7)S10----|-9--------|-(9)--------5--7-|
    |-(7)--------|-(7)----(7)S10----|-9--------|-(9)--------5--7-|
    |-(5)--------|-(5)----(5)S=8----|-7--------|-(7)--------3--5-|
    |------------|------------------|----------|------0-0-0------|
    
                        B5 C#5F#5  E5
                                   PM|   PM|   PM
      +W           +Q   Q  Q  Q    E E E E E E E E
    |------------|---------------|-----------------|
    |------------|---------------|-----------------|
    |-(7)--------|-(7)--4--6-----|-----------------|
    |-(7)--------|-(7)--4--6--4--|-----2-----2---2-|
    |-(5)--------|-(5)--2--4--4--|-----2-----2---2-|
    |------------|------------2--|-0-0---0-0---0---|
    
              N.C.          E5                        N.C.
      PM|   PM              PM|   PM|   PM    PM|   PM
      E E E E E E S S S S   E E E E E E E E   E E E E E E S S S S
    |---------------------|-----------------|------------------------||
    |---------------------|-----------------|-----------------------o||
    |---------------------|-----------------|------------------------||
    |-----2---------------|-----2-----2---2-|-----2------------------||
    |-----2---2-3-2h3p2p0-|-----2-----2---2-|-----2---2-3-2h3p2p0---o||
    |-0-0---0-------------|-0-0---0-0---0---|-0-0---0----------------||
    
      E5open
      Gtr II
      W          +W          +W
      |           |           |
      /           /           /
      Gtr I
                              |--3--|  |--3--|  |--3--|  |--3--|
      W           W           E  E  E  E  E  E  E  E  E  E  E  E
    |----------|-----------|-------------------------------------|
    |----------|-----------|-12-13-15-17p15-13-14-15-17-19p17-15-|
    |----------|-----------|-------------------------------------|
    |----------|-----------|-------------------------------------|
    |----------|-----------|-------------------------------------|
    |----------|-----------|-------------------------------------|
    
               B5       C#5      F#5
      +Q        Q        Q        Q
       |        |        |        |
       /        /        /        /
       |--3--|  |--3--|  |--3--|  |--3--|
       E  E  E  E  E  E  E  E  E  E  E  E
    |----------------------------19h20h22--|
    |-15-17-19-17-19-20-19-20-22-----------|
    |--------------------------------------|
    |--------------------------------------|
    |--------------------------------------|
    |--------------------------------------|
    
     Guitar Solo
      E5                                                            N.C.
      Gtr I
                                                                 |------3-------|
       Q.        E      +Q      Q         Q       +E.    S      +E   +E        +E   E    E
    |-22b24-----22b24==(22)r---22b24---|-22b24r==(22)---22b24==(22)r(22)b24---(22)-22---19---|
    |----------------------------------|-----------------------------------------------------|
    |----------------------------------|-----------------------------------------------------|
    |----------------------------------|-----------------------------------------------------|
    |----------------------------------|-----------------------------------------------------|
    |----------------------------------|-----------------------------------------------------|
    |
    | Gtr III
    |  PM---|    PM----|        PM        PM---|      PM
    |  E    E E  E       E   E  E    E    E    E   E  E          E          E       S S  S S
    |----------------------------------|-----------------------------------------------------|
    |----------------------------------|-----------------------------------------------------|
    |----------------------------------|-----------------------------------------------------|
    |---------2--------------2-------2-|-----------2-----------------------------------------|
    |---------2--------------2-------2-|-----------2-------------2----------3-------2h3p=2p0-|
    |--0----0----0-------0------0------|--0----0------0--------------------------------------|
    
      A5
       S  S  S  S  S  S  S  S  S  S  S  S  S  S  S  S
    |-22-20-19s17-21-19-17s15-19-17-15s14-17-15-14s12-|
    |-------------------------------------------------|
    |-------------------------------------------------|
    |-------------------------------------------------|
    |-------------------------------------------------|
    |-------------------------------------------------|
    |
    |  PM---|            PM---|            PM
    |  E     E     E     E     E     E     E     E
    |-------------------------------------------------|
    |-------------------------------------------------|
    |--------------2-----------------2-----------2----|
    |--------------2-----------------2-----------2----|
    |--0-----0-----0-----0-----0-----0-----0-----0----|
    |-------------------------------------------------|
    
                        C5
       S  S  S  S  S  S  S  S  S  S  E  E      +S   +S
    |-15p14------------------------------------------------|
    |-------17p15-15p14p12h14-12s10-10---------------------|
    |----------------------------------12b14==(12)r(12)b14-|
    |------------------------------------------------------|
    |------------------------------------------------------|
    |------------------------------------------------------|
    |
    |  PM---|            PM
    |  E     E     E     E     Q        Q
    |------------------------------------------------------|
    |------------------------------------------------------|
    |--------------2-----------2--------5------------------|
    |--------------2-----------2--------5------------------|
    |--0-----0-----0-----0-----0--------3------------------|
    |------------------------------------------------------|
    
      E5                                                 N.C.
       E  E  E     E  E  E  E  E    E.      +S   E  E     +E   E  E    E
    |----------------------------|--------------------------------------------|
    |----10-15----15-12----------|--------------------------------------------|
    |-12----14b16-14-12----12-14-|-14b16r==(14)-14-12b13-(12)----12---14b16---|
    |-------------------14-------|----------------------------14--------------|
    |----------------------------|--------------------------------------------|
    |----------------------------|--------------------------------------------|
    |
    |  PM|         PM|      PM      PM---|          PM
    |  E  E  E     E  E  E  E  E    E    E       E  E      E   E  S S  S    S
    |----------------------------|--------------------------------------------|
    |----------------------------|--------------------------------------------|
    |----------------------------|--------------------------------------------|
    |--------2-----------2-----2-|---------------2----------------------------|
    |--------2-----------2-----2-|---------------2---------2---3--2h3p=2p===0-|
    |--0--0--------0--0-----0----|--0----0----------0-------------------------|
    
      A5
       +E.    S  S  S  S  S  E      S   S  S  S  S  S
    |-------------------------------------------------|
    |--------12-15p12-15p12------------12-15p12-15p12-|
    |-(14)------------------14b16==14r----------------|
    |-------------------------------------------------|
    |-------------------------------------------------|
    |-------------------------------------------------|
    |
    |   PM-|           PM---|              PM
    |   E  E     E     E     E      E      E     E
    |-------------------------------------------------|
    |-------------------------------------------------|
    |------------2------------------2------------2----|
    |------------2------------------2------------2----|
    |---0--0-----0-----0-----0------0------0-----0----|
    |-------------------------------------------------|
    
                                   C5           E5
                                                 |---3---|  |---3---|  |---3---|  |---3---|
       E     E  S  S  S  S  Q       S  +S   E    E  E    E  E  E    E  E  E    E  E  E    E
    |--------------------------------------12-|-15p12------12----------------------------14--|
    |-------12-15p12-15p12-15b17===15r(15)----|---------15----15---12-15p12------12----------|
    |-14b16-----------------------------------|-------------------------------14----14-------|
    |-----------------------------------------|----------------------------------------------|
    |-----------------------------------------|----------------------------------------------|
    |-----------------------------------------|----------------------------------------------|
    |
    |  PM---|         PM                         PM---|          PM---|           PM
    |  E     E  E     E     Q       Q            E    E     E    E     E    E     E    E
    |-----------------------------------------|----------------------------------------------|
    |-----------------------------------------|----------------------------------------------|
    |-----------2-----------2-------5---------|----------------------------------------------|
    |-----------2-----------2-------5---------|-------------2---------------2----------2-----|
    |--0-----0--0-----0-----0-------3---------|-------------2---------------2----------2-----|
    |-----------------------------------------|--0----0----------0-----0----------0----------|
    
                            N.C.
       |---3---|  |---3---|  |---3---|  |----3----|
       E  E    E  E  E    E  E  E    E  E    E    E
    |-17p15---14-15p14------14---------12-------------|
    |--------------------17----17p==15------15p==14---|
    |-------------------------------------------------|
    |-------------------------------------------------|
    |-------------------------------------------------|
    |-------------------------------------------------|
    |
    |  PM---|          PM
    |  E    E     E    E     E    E     S S    S    S
    |-------------------------------------------------|
    |-------------------------------------------------|
    |-------------------------------------------------|
    |-------------2-----------------------------------|
    |-------------2----------2----3-----2h3p===2p===0-|
    |--0----0----------0------------------------------|
    
      A5                                                  C5
                                                       ~~~~~~
       |---3---|  |---3---|
       E  E    E  E  E    E  E  E  E  E    E  E  E  E  Q   Q
    |-----------------------------------|-------17-19s22--22---|
    |-15p14---12-14-12------------------|----18----------------|
    |--------------------14-12----12-14s|=19-------------------|
    |--------------------------14-------|----------------------|
    |-----------------------------------|----------------------|
    |-----------------------------------|----------------------|
    |
    |  PM---|          PM---|      PM      PM|      PM
    |  E    E     E    E     E  E  E  E    E  E  E  E  Q   Q
    |-----------------------------------|----------------------|
    |-----------------------------------|----------------------|
    |-------------2-------------2-----2-|--------2-----2---5---|
    |-------------2-------------2-----2-|--------2-----2---5---|
    |--0----0-----0----0-----0--0--0--0-|--0--0--0--0--0---3---|
    |-----------------------------------|----------------------|
    
      E5
       |---3---|  |----3-----|  |---3---|  |----3-----|
       E  E    E  E  E    S  S  E  E    E  E  E    S  S
    |---------12-17p12-----------------12-17p12---------|
    |----13--------------13-------13--------------13----|
    |-14--------------------14-14--------------------14-|
    |---------------------------------------------------|
    |---------------------------------------------------|
    |---------------------------------------------------|
    |
    |  PM---|          PM------|           PM
    |  E    E     E    E        E    E     E    E
    |---------------------------------------------------|
    |---------------------------------------------------|
    |---------------------------------------------------|
    |-------------2------------------2----------2-------|
    |-------------2------------------2----------2-------|
    |--0----0----------0--------0----------0------------|
    
                               N.C.                           A5
       |---3---|  |----3-----|  |----3-----|  |----3----|      |--3--|     |---3---|  |---3---|  |---3---|
       E  E    E  E  E    S  S  S  S  E    E  E    E    E      S  S  S  E  E  E    E  E  E    E  E  E    E
    |---------12-17p12--------------------12-17p==12--------|-12h15p12----------------------------------------|
    |----13--------------13----------13----------------13---|----------15-12------12-15p12--------------------|
    |-14--------------------14-14-14------------------------|----------------14--------------14-12------12----|
    |-------------------------------------------------------|--------------------------------------14---------|
    |-------------------------------------------------------|-------------------------------------------------|
    |-------------------------------------------------------|-------------------------------------------------|
    |
    |  PM---|          PM                                      PM------|        PM---|           PM
    |  E    E     E    E        E       E     S S    S    S    E        E  E    E     E    E     E    E
    |-------------------------------------------------------|-------------------------------------------------|
    |-------------------------------------------------------|-------------------------------------------------|
    |-------------------------------------------------------|--------------2---------------2----------2-------|
    |-------------2-----------------------------------------|--------------2---------------2----------2-------|
    |-------------2-------------2-------3-----2h3p===2p===0-|--0--------0--0----0-----0----0-----0----0-------|
    |--0----0----------0------------------------------------|-------------------------------------------------|
    
                                          C5        N.C.  G5      N.C.    G5
       Q       Q       E     +S       +S   +E   E   E S S S S S S S S S S S S S S
    |---------------------------------------------|-------------------------------|
    |-15------15------15----(15)-----(15)-(15)---|-------------------------------|
    |-14b16---14b16---14b16r(14)b16==(14)r(14)---|-------------------------------|
    |---------------------------------------------|-------------------------------|
    |---------------------------------------------|-7-7-7-8-8-8-8-9-9-9-9-9-9-9-9-|
    |---------------------------------------------|-------------------------------|
    |
    |  PM---|       PM                              PM|           PM--|
    |  E    E  E    E  Q                    Q       E E   Q       E   E   Q
    |---------------------------------------------|-------------------------------|
    |---------------------------------------------|-------------------------------|
    |----------2-------2--------------------5-----|-------------------------------|
    |----------2-------2--------------------5-----|-------------------------------|
    |--0----0--0----0--0--------------------3-----|-------5---------------5-------|
    |---------------------------------------------|-0-0---3-------0---0---3-------|
    
      N.C.
       S S  S S  S S  S  S  S  S  S  S  S  S  S  S
    |------------------------------------------------|
    |------------------------------------------------|
    |------------------------------------------------|
    |------------------------------------------------|
    |-10-9-10-9-10-9-11-10-12-11-12-11-12-11-13-12---|
    |------------------------------------------------|
    |
    |  PM------------------------------------|
    |  E    E    E    E     E     E     E     E
    |------------------------------------------------|
    |------------------------------------------------|
    |------------------------------------------------|
    |------------------------------------------------|
    |------------------------------------------------|
    |--0----0----2----2-----2-----2-----2-----2------|
    
                  G5          N.C.        G5
       S  S  S  S  S  S  S  S  S  S  S  S  S  S  S  S
    |-------------------------------------------------|
    |-------------------------------------------------|
    |-------------------------------------------------|
    |----------------------------------------------11-|
    |-14-13-14-13-14-14-15-15-14-14-15-14-14-14-15----|
    |-------------------------------------------------|
    |
    |  PM---|                  PM---|
    |  E     E     Q           E     E     Q
    |-------------------------------------------------|
    |-------------------------------------------------|
    |-------------------------------------------------|
    |-------------------------------------------------|
    |--------------5-----------------------5----------|
    |--0-----0-----3-----------0-----0-----3----------|
    
      N.C.
                                     |--3--|  |-----6-----|
       S  S  S  S  S  S  S  S  S  S  S  S  S  E  S  S  S  S
    |-------------------------------------------------------|
    |-------------------------------------------------------|
    |-------------------------------------------------12s14-|
    |-11-12-11-12-11-12-12-12-12-13-12-13-15-15-15-15-------|
    |-------------------------------------------------------|
    |-------------------------------------------------------|
    |
    |  PM------------------------------------------|
    |  E     E     E     E     E     E        E     E
    |-------------------------------------------------------|
    |-------------------------------------------------------|
    |-------------------------------------------------------|
    |-------------------------------------------------------|
    |-------------------------------------------------------|
    |--0-----0-----2-----2-----2-----2--------2-----2-------|
    
            G5          N.C.       G5         N.C.
                         |---3---|  |--3--|
       E  E  S  S  S  S  E  E    E  E  E  E    S  S  a  S  S  E  E  S  S  S  S  E  E
    |------------------------------------14-|-17p14----------------------------------|
    |----------------14-17-14------14-17----|-------14h17-14----14-17p14-------------|
    |-17-14-13-14-16------------16----------|----------------16----------16-14----14-|
    |---------------------------------------|----------------------------------16----|
    |---------------------------------------|----------------------------------------|
    |---------------------------------------|----------------------------------------|
    |
    |  PM|               PM---|                PM-------------------------------------
    |  E  E  Q           E    E     Q          E        E     E  E  E     E     E  E
    |---------------------------------------|----------------------------------------|
    |---------------------------------------|----------------------------------------|
    |---------------------------------------|----------------------------------------|
    |---------------------------------------|----------------------------------------|
    |--------5----------------------5-------|----------------------------------------|
    |--0--0--3-----------0----0-----3-------|--0--------0-----2--2--2-----2-----2--2-|
    
                 G5       N.C.       G5
       |---3---|  |--3--|  |---3---|  |--3--|
       E  E    E  E  E  E  E  E    E  E  E  E
    |-------------------------------------------|
    |-------------------------------------------|
    |-16p14------14-----------------------------|
    |---------16----16p14-16p14------14---------|
    |-----------------------------16----16-14---|
    |-------------------------------------------|
    |
    |-------|              PM---|
    |  E    E     Q        E    E     Q
    |-------------------------------------------|
    |-------------------------------------------|
    |-------------------------------------------|
    |-------------------------------------------|
    |-------------5-------------------5---------|
    |--0----0-----3--------0----0-----3---------|
    
      N.C.
       |---3---|  |---3---|
       E  E    E  E  E    E  E  E  E  E
    |-----------------------------------|
    |-----------------------------------|
    |-----------------------------------|
    |-----------------------------12-12-|
    |-16p14---12-14p12------12-14-------|
    |--------------------14-------------|
    |
    |  PM----------------------------|
    |  E    E     E    E     E  E  E  E
    |-----------------------------------|
    |-----------------------------------|
    |-----------------------------------|
    |-----------------------------------|
    |-----------------------------------|
    |--0----0-----2----2-----2--2--2--2-|
    
      E5                                C5    D5
       H     E  E  E  E    +Q    Q    E  E  Q
    |-------------------|-----------------------|
    |-------------------|-----------------------|
    |----------11-12-14-|-(14)--12---12h14p12---|
    |-14----14----------|-----------------------|
    |-------------------|-----------------------|
    |-------------------|-----------------------|
    |
    |                            PM--|
    |  W                   +Q    E E  E  Q    E
    |-------------------|-----------------------|
    |-------------------|-----------------------|
    |--9----------------|--(9)-----------5----7-|
    |--9----------------|--(9)-----------5----7-|
    |--7----------------|--(7)-----------3----5-|
    |-------------------|--------0-0--0---------|
    
                                         F5
       H      E  E  E  E    +Q    Q       Q   Q
    |--------------------|-----------------------|
    |--------------------|-------12------13--15--|
    |-----------11-12-14-|-(14)------------------|
    |-12-----14----------|-----------------------|
    |--------------------|-----------------------|
    |--------------------|-----------------------|
    |
    | +W                    +H        a   H
    |--------------------|-----------------------|
    |--------------------|-----------------------|
    |-(7)----------------|--(7)------(7)S10------|
    |-(7)----------------|--(7)------(7)S10------|
    |-(5)----------------|--(5)------(5)S=8------|
    |--------------------|-----------------------|
    
      E5                                C5   D5
       H     E  E  E  E    +Q    Q    Q    Q
    |-12----12s14-15-17-|-(17)--15---14--------|
    |-------------------|-----------------17---|
    |-------------------|----------------------|
    |-------------------|----------------------|
    |-------------------|----------------------|
    |-------------------|----------------------|
    |
    |                            PM--|
    |  W                   +Q    E E  E Q    E
    |-------------------|----------------------|
    |-------------------|----------------------|
    |--9----------------|--(9)----------5----7-|
    |--9----------------|--(9)----------5----7-|
    |--7----------------|--(7)----------3----5-|
    |-------------------|--------0-0--0--------|
    
                              F5          G5
        TP
        H      E  Q   E        +E   Q   E  +E   E  E  E
    |-/17-----17-19--20-|-----(20)-19--17-(17)-15-14h15-|
    |-------------------|-------------------------------|
    |-------------------|-------------------------------|
    |-------------------|-------------------------------|
    |-------------------|-------------------------------|
    |-------------------|-------------------------------|
    |
    |  +W                  a    H           H
    |-------------------|-------------------------------|
    |-------------------|-------------------------------|
    
    Узнай ВСЕ о своем друге в ВК или FB
    |--(7)--------------|-(7)S=10----------12-----------| |--(7)--------------|-(7)S=10----------12-----------| |--(5)--------------|-(5)S==8----------10-----------| |-------------------|-------------------------------| E5 |--3--| |--3--| |--3--| |--3--| E E E E E E E E E E E E |------15p14p12-15p14p12-15p14p12-15p14p12--| |-------------------------------------------| |-------------------------------------------| |-------------------------------------------| |-------------------------------------------| |-------------------------------------------| | | a W |-------------------------------------------| |-------------------------------------------| |-(12)S=9-----------------------------------| |-(12)S=9-----------------------------------| |-(10)S=7-----------------------------------| |-------------------------------------------| C5 D5 |--3---| |---3---| |---3---| |---3---| E E E E E E E E E E E E |-15p=14p12-15p14p==12-15p14p==12-15-12s==14-| |--------------------------------------------| |--------------------------------------------| |--------------------------------------------| |--------------------------------------------| |--------------------------------------------| | | PM--------| | +Q E E E Q E |--------------------------------------------| |--------------------------------------------| |-(9)------------------------5----------7----| |-(9)------------------------5----------7----| |-(7)------------------------3----------5----| |------------0----0-----0--------------------| F5 |--3---| |--3--| |--3--| |--3--| |--3---| |--3--| |--3--| |--3--| E E E E E E E E E E E E E E E E E E E E E E E E |-17p=15p14-17p15p14-17p15p14-17p15p14-|-17p=15p14-17p15p14-----17p15p14-17-15-15---| |--------------------------------------|--------------------------------------------| |--------------------------------------|--------------------------------------------| |--------------------------------------|--------------------------------------------| |--------------------------------------|--------------------------------------------| |--------------------------------------|--------------------------------------------| | | +W +H a H |--------------------------------------|--------------------------------------------| |--------------------------------------|--------------------------------------------| |-(7)----------------------------------|-(7)----------------(7)S10------------------| |-(7)----------------------------------|-(7)----------------(7)S10------------------| |-(5)----------------------------------|-(5)----------------(5)S=8------------------| |--------------------------------------|--------------------------------------------| E5 |--3--| |--3--| |--3--| |--3--| E E E E E E E E E E E E |-19p17p15-19p17p15-19p17p15-19-15-16-| |-------------------------------------| |-------------------------------------| |-------------------------------------| |-------------------------------------| |-------------------------------------| | | W |-------------------------------------| |-------------------------------------| |--9----------------------------------| |--9----------------------------------| |--7----------------------------------| |-------------------------------------| C5 D5 |--3---| |---3---| |---3---| |---3---| E E E E E E E E E E E E |-20p=19p17-20p19---17-20p19p==17-20p19p==17--| |---------------------------------------------| |---------------------------------------------| |---------------------------------------------| |---------------------------------------------| |---------------------------------------------| | | PM--------| | +Q E E E Q E |---------------------------------------------| |---------------------------------------------| |-(9)------------------------5----------7-----| |-(9)------------------------5----------7-----| |-(7)------------------------3----------5-----| |------------0----0-----0---------------------| B5 C#5 F#5 E5 ~~~~~~~~~~~~ H H H Q Q W |-22b24----22b24----|-22b24-----22b24--22b24--|--------| |-------------------|-------------------------|--------| |-------------------|-------------------------|--------| |-------------------|-------------------------|-14----| |-------------------|-------------------------|-14----| |-------------------|-------------------------|-12----| | | +W +Q Q Q Q W |-------------------|-------------------------|--------| |-------------------|-------------------------|--------| |-(7)---------------|-(7)----4---8------------|--------| |-(7)---------------|-(7)----4---8------4-----|-14----| |-(5)---------------|-(5)----2---6------4-----|-14----| |-------------------|-------------------2-----|-12----| Bridge Half time feel Q=184 E5 F5 D5 E5 G5 F5 Gtrs I, II PM----| PM----| H E E E E H H H E E E E H H 8x ||---------------|------------|--------------|--------------|| ||o--------------|------------|--------------|-------------o|| ||--9------------|-10----7----|-9------------|-12----10-----|| ||--9------------|-10----7----|-9------------|-12----10-----|| ||o-7------------|--8----5----|-7------------|-10-----8----o|| ||-------0-0-0-0-|------------|------0-0-0-0-|--------------|| PM| PM| PM PM| PM E E E E E E E E E E E E E E S S S S |-----------------|---------------------| |-----------------|---------------------| |-----------------|---------------------| |-----2-----2---2-|-----2---------------| |-----2-----2---2-|-----2---2-3-2h3p2p0-| |-0-0---0-0---0---|-0-0---0-------------| PM| PM| PM PM| PM E E E E E E E E E E E E E E S S S S |-----------------|---------------------| |-----------------|---------------------| |-----------------|---------------------| |-----2-----2---2-|-----2---------------| |-----2-----2---2-|-----2---2-3-2h3p2p0-| |-0-0---0-0---0---|-0-0---0-------------| E5 E5oF5IG5ID5 Gtr I |--3--| E E Q H Q Q Q Q. +E | | | | | | / / / / / / Gtr II PM-----| ~~~ |---3---| |--3--| |--3--| |--3--| E E E E E E E E E Q Q Q Q H |----------------------------------|-------------------| |----------------------------------|----------17-------| |----------------------------------|-------16----------| |------------12-14-15-17-15-14s12--|----15-------------| |-12-14---15-----------------------|-14----------------| |----------------------------------|-------------------| 3rd Verse E5 N.C. G5 N.C.G5 Gtrs I, II PM| PM| PM PM| PM PM| PM| E E E E E E E E E E E E E E S S S S 8x E E Q E E Q ||------------------|----------------------||-||----------------| ||o-----------------|---------------------o||-||o---------------| ||------------------|----------------------||-||----------------| ||------2-----2---2-|-----2----------------||-||----------------| ||o-----2-----2---2-|-----2---2-3-2h3p2p0-o||-||o-----5------5--| ||--0-0---0-0---0---|-0-0---0--------------||-||--0-0-3--0-0-3--| N.C. E5 C5 D5 PM------------| PM--| E E E E E E E E 4x W +Q E E E Q E |------------------||----------|-------------------| |-----------------o||----------|-------------------| |------------------||-9--------|-(9)--------5--7---| |------------------||-9--------|-(9)--------5--7---| |-----------------o||-7--------|-(7)--------3--5---| |-0-0-2-2-2-2-2-2--||----------|------0-0-0--------| F5 E5 PM--| +W +H a H W +Q E E E Q E |------------|------------------|----------|-----------------| |------------|------------------|----------|-----------------| |-(7)--------|-(7)----(7)S10----|-9--------|-(9)--------5--7-| |-(7)--------|-(7)----(7)S10----|-9--------|-(9)--------5--7-| |-(5)--------|-(5)----(5)S=8----|-7--------|-(7)--------3--5-| |------------|------------------|----------|------0-0-0------| F5 G5 E5 C5 D5 PM--| +W a H H a W +Q E E E Q E |------------|-----------------|---------------|-------------------| |------------|-----------------|---------------|-------------------| |-(7)--------|-(7)S10----12----|-(12)S9--------|-(9)--------5--7---| |-(7)--------|-(7)S10----12----|-(12)S9--------|-(9)--------5--7---| |-(5)--------|-(5)S=8----10----|-(10)S7--------|-(7)--------3--5---| |------------|-----------------|---------------|------0-0-0--------| F5 E5 C5 D5 PM--| +W +H a H W +Q E E E Q E |------------|------------------|----------|-----------------| |------------|------------------|----------|-----------------| |-(7)--------|-(7)----(7)S10----|-9--------|-(9)--------5--7-| |-(7)--------|-(7)----(7)S10----|-9--------|-(9)--------5--7-| |-(5)--------|-(5)----(5)S=8----|-7--------|-(7)--------3--5-| |------------|------------------|----------|------0-0-0------| Coda B5 C#5F#5 E5 PM| PM| PM +W +Q Q Q Q E E E E E E E E |------------|---------------||------------------| |------------|---------------||o-----------------| |-(7)--------|-(7)--4--6-----||------------------| |-(7)--------|-(7)--4--6--4--||------2-----2---2-| |-(5)--------|-(5)--2--4--4--||o-----2-----2---2-| |------------|------------2--||--0-0---0-0---0---| F5 D5 PM| PM| PM PM +H. E E E E E E E E E E +H. E E |--------------|-----------------|----------------|| |--------------|-----------------|---------------o|| |--------------|-----------------|----------------|| |-(2)------2-2-|-----2-----2---3-|-(3)------0-0---|| |-(2)------2-2-|-----2-----2---3-|-(3)------0-0--o|| |--------------|-0-0---0-0---0---|----------------|| E5 Gtr I Q E +E +Q E E +W |------------------------------|---------------| |-----15b17==(15)r(15)---13-12-|-(12)----------| |------------------------------|---------------| |------------------------------|---------------| |------------------------------|---------------| |------------------------------|---------------| | | Gtr II | Q E +E +Q E E +W |------------------------------|---------------| |------------------------------|---------------| |-----14b16==(14)r(14)---12-11-|-(11)----------| |------------------------------|---------------| |------------------------------|---------------| |------------------------------|---------------| | | Gtr III | PM| PM-| PM | E E E E E E E E +H. E E |------------------------------|---------------| |------------------------------|---------------| |------------------------------|---------------| |------2---------------2-----2-|--(2)------2-2-| |------2---------------2-----2-|--(2)------2-2-| |-0-0----------0----0-----0----|---------------| F5 D5 +Q E +E +Q E E +W |---------------------------------|---------------| |-(12)---12b13==(12)r(12)------13-|-(13)----------| |---------------------------14----|---------------| |---------------------------------|---------------| |---------------------------------|---------------| |---------------------------------|---------------| | | +Q E +E +Q E E +W |---------------------------------|---------------| |---------------------------------|---------------| |-(11)---11b13==(11)r(11)------12-|-(12)----------| |---------------------------14----|---------------| |---------------------------------|---------------| |---------------------------------|---------------| | | PM-| PM-| PM PM | E E E E E E E E +H. E E |---------------------------------|---------------| |---------------------------------|---------------| |---------------------------------|---------------| |---------2---------------2-----3-|--(3)------0-0-| |---------2---------------2-----3-|--(3)------0-0-| |---0--0----------0----0-----0----|---------------| E5 Gtr I +Q E +E +Q E E +W ||----------------------------------|---------------| ||o-(13)---15b17==(15)r(15)---13-12-|-(12)----------| ||----------------------------------|---------------| ||----------------------------------|---------------| ||o---------------------------------|---------------| ||----------------------------------|---------------| | | Gtr II | +Q E +E +Q E E +W ||----------------------------------|---------------| ||o---------------------------------|---------------| ||--(12)---14b16==(14)r(14)---12-11-|-(11)----------| ||----------------------------------|---------------| ||o---------------------------------|---------------| ||----------------------------------|---------------| | | Gtr III | PM-| PM-| PM | E E E E E E E E +H. E E ||----------------------------------|---------------| ||o---------------------------------|---------------| ||----------------------------------|---------------| ||----------2---------------2-----2-|--(2)------2-2-| ||o---------2---------------2-----2-|--(2)------2-2-| ||----0--0----------0----0-----0----|---------------| F5 D5 +Q E +E +Q E E +W 3x |---------------------------------|-----------------|| |-(12)---12b13==(12)r(12)------13-|-(13)-----------o|| |---------------------------14----|-----------------|| |---------------------------------|-----------------|| |---------------------------------|----------------o|| |---------------------------------|-----------------|| | | +Q E +E +Q E E +W 3x |---------------------------------|-----------------|| |---------------------------------|----------------o|| |-(11)---11b13==(11)r(11)------12-|-(12)------------|| |---------------------------14----|-----------------|| |---------------------------------|----------------o|| |---------------------------------|-----------------|| | | PM-| PM-| PM PM | E E E E E E E E +H. E E 3x |---------------------------------|-----------------|| |---------------------------------|----------------o|| |---------------------------------|-----------------|| |---------2---------------2-----3-|--(3)------0-0---|| |---------2---------------2-----3-|--(3)------0-0--o|| |---0--0----------0----0-----0----|-----------------|| E5 D5 C5B5 C5 B5 A5C5 Gtrs I, II PM| PM E E Q Q E E +W +Q Q Q E E +W |---------------|------------|----------------|--------| |---------------|------------|----------------|--------| |-----9--7--5-4-|-(4)--------|-(4)--5--4----5-|-(5)----| |-----9--7--5-4-|-(4)--------|-(4)--5--4----5-|-(5)----| |-----7--5--3-2-|-(2)--------|-(2)--3--2--0-3-|-(3)----| |-0-0-----------|------------|----------------|--------| E5 D5 C5B5 C5 B5 A5C5 PM +Q Q Q E E +W +Q Q Q E E +W |----------------|------------|----------------|--------| |----------------|------------|----------------|--------| |-(5)--9--7--5-4-|-(4)--------|-(4)--5--4----5-|-(5)----| |-(5)--9--7--5-4-|-(4)--------|-(4)--5--4----5-|-(5)----| |-(3)--7--5--3-2-|-(2)--------|-(2)--3--2--0-3-|-(3)----| |----------------|------------|----------------|--------| E5 D5 C5B5 Gtr I |--3--| |-3--| |-3--| |-3--| W E E E E E E E E E E E E |----------------|----------------------------------| |----------------|-19p=16p0-19p16p0-19p16p0-19p16p0-| |----------------|----------------------------------| |----------------|----------------------------------| |----------------|----------------------------------| |----------------|----------------------------------| | | Gtrs II, III | +Q Q Q E E +W |----------------|----------------------------------| |----------------|----------------------------------| |-(5)--9--7--5-4-|-(4)------------------------------| |-(5)--9--7--5-4-|-(4)------------------------------| |-(3)--7--5--3-2-|-(2)------------------------------| |----------------|----------------------------------| C5 B5 A5 D5 |--3--| |-3--| |-3--| |--3---| |--3--| |-3--| |-3--| |-3--| E E E E E E E E E E E E E E E E E E E E E E E E |------------------------------------|------------------------------------| |-19p=16p0-19p16p0-19p16p0-19p16p==0-|-20p=17p0-20p17p0-20p17p0-20p17p0---| |------------------------------------|------------------------------------| |------------------------------------|------------------------------------| |------------------------------------|------------------------------------| |------------------------------------|------------------------------------| | | PM | +Q Q Q E E +W |------------------------------------|------------------------------------| |------------------------------------|------------------------------------| |-(4)-------5-------4------------5---|-(5)--------------------------------| |-(4)-------5-------4------------5---|-(5)--------------------------------| |-(2)-------3-------2-------0----3---|-(3)--------------------------------| |------------------------------------|------------------------------------| E5 D5 C5 B5 |--3--| |-3--| |-3--| |--3---| |--3--| |-3--| |-3--| |-3--| E E E E E E E E E E E E E E E E E E E E E E E E |------------------------------------|----------------------------------| |-20p=17p0-20p17p0-20p17p0-20p17p==0-|-19p=16p0-19p16p0-19p16p0-19p16p0-| |------------------------------------|----------------------------------| |------------------------------------|----------------------------------| |------------------------------------|----------------------------------| |------------------------------------|----------------------------------| | | +Q Q Q E E +W |------------------------------------|----------------------------------| |------------------------------------|----------------------------------| |-(5)-------9-------7-------5----4---|-(4)------------------------------| |-(5)-------9-------7-------5----4---|-(4)------------------------------| |-(3)-------7-------5-------3----2---|-(2)------------------------------| |------------------------------------|----------------------------------| C5 B5 A5 D5 |--3--| |-3--| |-3--| |--3---| |--3--| |-3--| |-3--| |-3--| E E E E E E E E E E E E E E E E E E E E E E E E |------------------------------------|-----------------------------------| |-19p=16p0-19p16p0-19p16p0-19p16p==0-|-20p=17p0-20p17p0-20p17p0-20p17p0--| |------------------------------------|-----------------------------------| |------------------------------------|-----------------------------------| |------------------------------------|-----------------------------------| |------------------------------------|-----------------------------------| | | PM | +Q Q Q E E +W |------------------------------------|-----------------------------------| |------------------------------------|-----------------------------------| |-(4)-------5-------4------------5---|-(5)-------------------------------| |-(4)-------5-------4------------5---|-(5)-------------------------------| |-(2)-------3-------2-------0----3---|-(3)-------------------------------| |------------------------------------|-----------------------------------| E5 D5 4/4 Gtrs I, II PM----| PM----| E E E E E E Q +W E E E E E E E E +W ||-----------------|------------|-----------------|---------|| ||o----------------|------------|-----------------|--------o|| ||--------------9--|-(9)--------|-------------9-7-|-(7)-----|| ||--------------9--|-(9)--------|-------------9-7-|-(7)-----|| ||o-------------7--|-(7)--------|-------------7-5-|-(5)----o|| ||--0-0-0-0-0------|------------|-0-0-0-0-0-------|---------|| Gtrs I, II PM----| PM----| E E E E E E Q +H E E Q E E E E E E E E ||------------------|-----------------|------------------| ||o-----------------|-----------------|------------------| ||------------------|-----------------|------------------| ||---------------9--|--(9)-----9------|--------------9-7-| ||o-------------10--|-(10)----10------|-------------10-9-| ||--0-0-0-0-0-------|-----------------|-0-0-0-0-0--------| | | Gtr III | PM----| PM----| | E E E E E E Q +H E E Q E E E E E E E E ||------------------|-----------------|------------------| ||o-----------------|-----------------|------------------| ||---------------9--|--(9)-----9------|--------------9-7-| ||---------------9--|--(9)-----9------|--------------9-7-| ||o--------------7--|--(7)-----7------|--------------7-5-| ||--0-0-0-0-0-------|-----------------|-0-0-0-0-0--------| Free time Q=120 A5 G5 D/F# +H E E Q H H H H |----------------||-----------:-----------: |---------------o||-----------:-----------: |----------------||-----------:-----------: |-(7)----7-------||-----------:-----------: |-(9)----9------o||------7----:-5----5----: |----------------||------5----:-3----2----: | | +H E E Q H H H H |----------------||-----------:-----------: |---------------o||-----------:-----------: |-(7)----7-------||-----------:-----------: |-(7)----7-------||-----------:-----------: |-(5)----5------o||------7----:-5----5----: |----------------||------5----:-3----2----: E5 Gtrs I, II Q Q Q Q Q Q Q Q Q Q Q Q |-----------------:------------------:-14h==15--14------: |-----------------:----------16--17--:--7h===8---7--17--: |-------------14--:-16---17---8---9--:---------------9--: |-14--16--17---7--:--9---10----------:------------------: |--7---9--10------:------------------:------------------: |-----------------:------------------:------------------: | | Gtr III | TP TP TP | W +W +W |-----------------:------------------:------------------: |-----------------:------------------:------------------: |-----------------:------------------:------------------: |--2--------------:-(2)--------------:-(2)--------------: |--2--------------:-(2)--------------:-(2)--------------: |--0--------------:-(0)--------------:-(0)--------------: Q Q Q Q Q Q H +H H W |------------------:----------------:-----------------:-------------*| |-16---------------:----------------:-----------------:-------------*| |--8---17--16p=14--:----------------:-----------------:-------------*| |------10---9p==7--:-17p==16p=14----:-(14)------------:-------------*| |------------------:-10p===9p==7----:--(7)------------:-------------*| |------------------:----------------:-----------------:-------------*| | | TP TP | +W +W +H +Q Q Q Q H |------------------:----------------:-----------------:-------------*| |------------------:----------------:-----------------:-------------*| |------------------:----------------:-----------------:-------------*| |-(2)--------------:-(2)------------:--(2)----(2)--2--:-2----------*| |-(2)--------------:-(2)------------:--(2)----(2)--2--:-2-----------*| |-(0)--------------:-(0)------------:--(0)----(0)--0--:-0-----------*| Duration Legend --------------- W - whole; H - half; Q - quarter; E - 8th; S - 16th; T - 32nd; X - 64th; a - acciaccatura + - note tied to previous; . - note dotted; .. - note double dotted Uncapitalized letters represent notes that are staccato (1/2 duration) Irregular groupings are notated above the duration line Duration letters will always appear directly above the note/fret number it represents the duration for. Duration letters with no fret number below them represent rests. Multi- bar rests are notated in the form Wxn, where n is the number of bars to rest for. Low melody durations appear below the staff Tablature Legend ---------------- h - hammer-on p - pull-off b - bend pb - pre-bend r - bend release (if no number after the r, then release immediately) / - slide into or out of (from/to "nowhere") s - legato slide S - shift slide - natural harmonic [n] - artificial harmonic n(n) - tapped harmonic ~ - vibrato tr - trill T - tap TP - trem. picking PM - palm muting n/ - tremolo bar dip; n = amount to dip n - tremolo bar down n/ - tremolo bar up /n - tremolo bar inverted dip = - hold bend; also acts as connecting device for hammers/pulls <> - volume swell (louder/softer) x - on rhythm slash represents muted slash o - on rhythm slash represents single note slash Misc Legend ----------- | - bar || - double bar ||o - repeat start o|| - repeat end *| - double bar (ending) : - bar (freetime) $ - Segno & - Coda Tempo markers - = BPM(8/16=s8/s16), where s8 = swing 8ths, s16 = swing 16ths *************************************************************************************** * Generated using Power Tab Editor by Brad Larsen - http://powertab.guitarnetwork.org * ***************************************************************************************

    http://www.powertabs.net
    искать в аптеке
    список лекарств






    О сайтеАккордыХит-парадПоискУроки ФорумыИщу песню
    ПрограммыСвежачок-сПодпискаСтатьи
    Яндекс.Метрика