Табулатура Metallica | Bleeding Me  (2) гитара табулатуры уроки тексты песен Metallica текст lyrics песня аккорды песни ноты нота электрогитара струна  
   А Б В Г Д Е Ж З И К Л М Н О П Р С Т У Ф Х Ч Ш Ы Э Ю Я       Разные песни
1-9 A B C D E F G H I J K L M N O P Q R S T U V W Y Z      Все исполнители in english

    



группа Metallica, Табулатура песни Bleeding Me (2)

Работа в Европе для граждан РФ, Украины, СНГ

  • минимальная зарплата $500.
  • виза и контракт на полгода, возможно продление
  • проживание оплачивает работодатель
  • нужен только загранпаспорт
  • оформление 190 €
  • данное предложение - отличная возможность эмигрировать в Европу и закрепиться здесь навсегда.

  • Мы свяжемся с Вами по WhatsApp или Viber и ответим на любые вопросы.
    на нашем сайте можно почитать подробнее »

    Группа: Metallica - другие аккорды (225),   о группе (32 статей),   диски (11),   фотографии (49)
    Табулатура песни: Bleeding Me (2)
    Просмотров: 1900
    Прислал: DiaSpar (diaspar@i.com.ua)




        
    #----------------------------------PLEASE NOTE---------------------------------#
    #This file is the author's own work and represents their interpretation of the #
    #song. You may only use this file for private study, scholarship, or research. #
    #------------------------------------------------------------------------------##
                                       BLEEDING ME
                                As recorded by Metallica
                               (From the 1996 Album LOAD)
    Words and Music by J. Hetfield, L. Ulrich & K. Hammet
              Em                    D                  Dsus4                  A
          x 7 9 9 8 x          x 5 7 7 7 x          x 5 7 7 8 x          5 7 7 6 x x
              B5                   C5                   A5
          7 9 9 x x x         8 10 10 x x x         5 7 7 x x x
    Gtr I (D# G# C# F# A# D#) - 'James Clean'
    Gtr II (D# G# C# F# A# D#) - 'Kirk Clean'
    Gtr III (D# G# C# F# A# D#) - 'James Dist (Rythm I)'
    Gtr IV (D# G# C# F# A# D#) - 'Kirk Dist (Rythm II)'
    Gtr V (D# G# C# F# A# D#) - 'Kirk Solo'
    Gtr VI (D# G# C# F# A# D#) - 'Interlude Clean'
       Intro
        Q=116
        N.C.
       4/4
        Gtr I
                   ~                                  ~                      ~
        Q   Q  E E Q     Q   E E E E E E   Q   Q  E E Q     Q   E  E E  E  a Q
    ||----------------|------------------|---------------|----------------------|
    ||o---------------|------------------|---------------|----------------------|
    ||----------------|------------------|---------------|----------------------|
    ||---------5p0----|--------------5---|--------5p0----|----------------------|
    ||o----/7------7--|-(7)--7-----5---7-|----/7------7--|-(7)--7------4--4s2--|
    ||--0-------------|--0-----0-5-------|-0-------------|--0------0h5-(5)-5s3--|
    
                 ~                                  ~               ~
      Q   Q  E E Q     Q   E E E E E E   Q   Q  E E Q    Q  E E E E Q
    |---------------|------------------|---------------|----------------||
    |---------------|------------------|---------------|---------------o||
    |---------------|------------------|---------------|----------------||
    |--------5p0----|--------------5---|--------5p0----|----------------||
    |----/7------7--|-(7)--7-----5---7-|----/7------5--|----5-----5----o||
    |-0-------------|--0-----0-5-------|-0-------------|-3----3s2---2---||
    
        E
        Gtr III
        W               +W                 +W               +W
        |                |                  |                |
        o                /                  /                /
        Gtr I
                   ~                                   ~                      ~
        Q   Q  E E Q     Q   E E E E E E    Q   Q  E E Q     Q   E  E E  E  a Q
    ||----------------|------------------|----------------|----------------------|
    ||o---------------|------------------|----------------|----------------------|
    ||----------------|------------------|----------------|----------------------|
    ||---------5p0----|--------------5---|---------5p0----|----------------------|
    ||o----/7------7--|-(7)--7-----5---7-|-----/7------7--|-(7)--7------4--4s2--|
    ||--0-------------|--0-----0-5-------|--0-------------|--0------0h5-(5)-5s3--|
    |
    |   Gtr II
    |   Q   Q  Q   Q     Q   Q   Q   Q      Q   Q  Q   Q     Q   Q    Q       Q
    ||--0------0------|--0-------0-------|--0------0------|--0--------0----------|
    ||o-8------8------|--8-------8---7---|--8------8------|--8--------8----------|
    ||--9------9------|--9-------9-------|--9------9------|--9--------9-------7--|
    ||------9------9--|------9-----------|------9------9--|------9---------------|
    ||o---------------|------------------|----------------|----------------------|
    ||----------------|------------------|----------------|----------------------|
    
      Em
                 ~                                                       ~
      Q   Q  E E Q     Q   E E E E E E   Q   Q  E E S   +E.   Q  E E E E Q
    |---------------|------------------|--------------------|---------------||
    |---------------|------------------|--------------------|---------------||
    |---------------|------------------|--------------------|---------------||
    |--------5p0----|--------------5---|--------5h7-7b8r(7)-|---------------||
    |----/7------7--|-(7)--7-----5---7-|----/7--------------|----5-----5----||
    |-0-------------|--0-----0-5-------|-0------------------|-3----3s2---2--||
    |
    | Q   Q  Q   Q     Q   Q   Q   Q     Q   Q  Q   Q         Q  Q   Q   Q
    |-0------0------|--0-------0-------|-0------0-----------|-0------0------||
    |-8------8------|--8-------8---7---|-8------8-----------|-8------8------||
    |-9------9------|--9-------9-------|-9------9-----------|-9------9---7--||
    |-----9------9--|------9-----------|-----9------9-------|----9-------7--||
    |---------------|------------------|--------------------|---------------||
    |---------------|------------------|--------------------|---------------||
    
     Verse 1 & 2
      Em
      Gtr I
                  ~
      Q   Q   E E Q     Q    E E  E E  E E
    |----------------|---------------------|
    |----------------|---------------------|
    |----------------|---------------------|
    |---------5p0----|-----------------5---|
    |----/7-------7--|-(7)---7------5----7-|
    |-0--------------|--0------0--5--------|
    |
    | Gtr II
    | Q   H.            Q    Q    Q    Q
    |-0--------------|----------------12---|
    |-8--------------|----------------12---|
    |-9--------------|-----------12--------|
    |-----9----------|------14-------------|
    |----------------|---------------------|
    |----------------|---------------------|
    
                    ~                       ~
        Q    Q  E E Q      Q   E  E E  E  a Q
    |------------------|-----------------------|
    |------------------|-----------------------|
    |------------------|-----------------------|
    |-----------5p0----|-----------------------|
    |-------/7------7--|--(7)--7------4--4s2--|
    |---0--------------|---0------0h5-(5)-5s3--|
    |
    |  +W                 +H        Q       Q
    |-(12)-------------|-(12)------------------|
    |-(12)-------------|-(12)---------------8--|
    |------------------|------------9----------|
    |------------------|-----------------------|
    |------------------|-----------------------|
    |------------------|-----------------------|
    
      Gtr I
                 ~
      Q   Q  E E Q     Q    E E  E E  E E
    |---------------|---------------------|
    |---------------|---------------------|
    |---------------|---------------------|
    |--------5p0----|-----------------5---|
    |----/7------7--|-(7)---7------5----7-|
    |-0-------------|--0------0--5--------|
    |
    | Gtr II
    | W               +Q    Q    Q    Q
    |-7-------------|-(7)------------12---|
    |-7-------------|-(7)------------12---|
    |-9-------------|-(9)-------12--------|
    |---------------|------14-------------|
    |---------------|---------------------|
    |---------------|---------------------|
    |
    | Gtr I
    |            ~
    | Q   Q  E E Q     Q    E E  E E  E E
    |---------------|---------------------|
    |---------------|---------------------|
    |---------------|---------------------|
    |--------5p0----|-----------------5---|
    |----/7------7--|-(7)---7------5----7-|
    |-0-------------|--0------0--5--------|
    
                    ~
        Q    Q  E E Q      E  E E E E  E a  Q
    |------------------|-------------------------|
    |------------------|-------------------------|
    |------------------|---x--7-7s9-9s12-7s=9----|
    |-----------5p0----|-------------------------|
    |-------/7------5--|---x--5-5s7-7s10-5s=7----|
    |---0--------------|-------------------------|
    |
    |  +W                 +W
    |-(12)-------------|-(12)--------------------|
    |-(12)-------------|-(12)--------------------|
    |------------------|-------------------------|
    |------------------|-------------------------|
    |------------------|-------------------------|
    |------------------|-------------------------|
    |
    |               ~
    |   Q    Q  E E Q      E  E E E E  E    E  E
    |------------------|-------------------------|
    |------------------|-------------------------|
    |------------------|---x--7-7s9-9s12---12s11-|
    |-----------5p0----|-------------------------|
    |-------/7------5--|---x--5-5s7-7s10---10s=9-|
    |---0--------------|-------------------------|
    
         Em
                    ~
         Q   Q  E E Q     Q    E E  E E  E E
    |------------------|---------------------|
    |------------------|---------------------|
    |------------------|---------------------|
    |-----------5p0----|-----------------5---|
    |-------/7------7--|-(7)---7------5----7-|
    |----0-------------|--0------0--5--------|
    |
    |    W                Q    Q    Q    Q
    |------------------|----------------12---|
    |------------------|----------------12---|
    |------------------|-----------12--------|
    |------------------|------14-------------|
    |------------------|---------------------|
    |------------------|---------------------|
    |
    |               ~
    |  a Q   Q  E E Q     Q    E E  E E  E E
    |------------------|---------------------|
    |------------------|---------------------|
    |-11s9-------------|---------------------|
    |-----------5p0----|-----------------5---|
    |--9s7--/7------7--|-(7)---7------5----7-|
    |------------------|--0------0--5--------|
    
                    ~
        Q    Q  E E Q      E  E Q    E  E    Q
    |------------------|--------------------------|
    |------------------|--------------------------|
    |------------------|-------------4h=5----4----|
    |-----------5p0----|------5-5----5-------5----|
    |-------/7------7--|--------------------------|
    |---0--------------|---0----------------------|
    |
    |  +W                 +H         Q       Q
    |-(12)-------------|-(12)---------------------|
    |-(12)-------------|-(12)----------------8----|
    |------------------|-------------9------------|
    |------------------|--------------------------|
    |------------------|--------------------------|
    |------------------|--------------------------|
    |
    |               ~                        ~
    |   Q    Q  E E Q      Q    E  E E  E  a Q
    |------------------|--------------------------|
    |------------------|--------------------------|
    |------------------|--------------------------|
    |-----------5p0----|--------------------------|
    |-------/7------7--|--(7)---7------4--4s2----|
    |---0--------------|---0-------0h5-(5)-5s3----|
    
      Gtr I
                 ~
      Q   Q  E E Q     Q    E E  E E  E E
    |---------------|---------------------|
    |---------------|---------------------|
    |---------------|---------------------|
    |--------5p0----|-----------------5---|
    |----/7------7--|-(7)---7------5----7-|
    |-0-------------|--0------0--5--------|
    |
    | Gtr II
    | W               +Q    Q    Q    Q
    |-7-------------|-(7)------------12---|
    |-7-------------|-(7)------------12---|
    |-9-------------|-(9)-------12--------|
    |---------------|------14-------------|
    |---------------|---------------------|
    |---------------|---------------------|
    
                    ~                     ~~
        Q    Q  E E Q      Q   E E E   E  Q
    |------------------|---------------------------||
    |------------------|---------------------------||
    |------------------|---------------------------||
    |-----------5p0----|---------------------------||
    |-------/7------5--|-------5-------5-----------||
    |---0--------------|---3-----3s2------2--------||
    |
    |                            Gtr IV
    |  +W                 +H       E   E  E  E
    |-(12)-------------|-(12)----------------------||
    |-(12)-------------|-(12)----------------------||
    |------------------|--------------------12b14r=||
    |------------------|-----------------12--------||
    |------------------|-------------/14-----------||
    |------------------|---------------------------||
    
      Em                          D       DsDs4
      Gtr III
        E  E E E   Q      E E      E  E E E Q     E E
        |  | | |   |      | |      |  | | | |     | |
        /  / x /   /      x x      /  / x / /     x x
      Gtr IV
        ~~~~
       +H         +E    E E E     +H        E   E E E
    |---------------------------|---------------------|
    |---------------------------|---------------------|
    |-(12)-------(12)----------|-------------------7-|
    |---------------------5-7b9r|=(7)-------------5---|
    |------------------/7-------|-----------7-/7-----|
    |---------------------------|---------------------|
    
                DsDs4             Em              (B)(D)
      E    E  E E Q     E   E     E E E E  Q       E  E
      |    |  | | |     |   |     | | | |  |       |  |
      /    /  x / /     x   x     / / x /  /       o  o
           ~~~                    ~
      E   +Q.     E E   S S E   a H       +E    E  E  E
    |-------------------------|-------------------------------|
    |-------------------------|-------------------------------|
    |-------------------------|----------------------12b14r===|
    |-7b9r(7)-----5-7b9-7p5---|-------------------12----------|
    |-----------------------7-|-5h7-------(7)-/14-------------|
    |-------------------------|-------------------------------|
    
      Em                          D       DsDs4
        E  E E E   Q      E E      E  E E E Q     E E
        |  | | |   |      | |      |  | | | |     | |
        /  / x /   /      x x      /  / x / /     x x
        ~~~~
       +H         +E    E E E     +H        E   E E E
    |---------------------------|---------------------|
    |---------------------------|---------------------|
    |-(12)-------(12)----------|-------------------7-|
    |---------------------5-7b9r|=(7)-------------5---|
    |------------------/7-------|-----------7-/7-----|
    |---------------------------|---------------------|
    
                Dsus4   D         A         (E(G)
      E    E  E E Q     E   E     E E E E E E Q
      |    |  | | |     |   |     | | | | | | |
      /    /  x / /     x   x     / / x / / o o
           ~~~                    ~
      E   +Q.     E E   S S E   a W
    |-------------------------|---------------------||
    |-------------------------|--------------------o||
    |-------------------------|---------------------||
    |-7b9r(7)-----5-7b9-7p5---|---------------------||
    |-----------------------7-|-5h7----------------o||
    |-------------------------|---------------------||
    
     Chorus
      $
      E5                 D5                                    A5
      Gtr VI
       W                 +W                 +W                 +W
       |
       o
      Gtrs III, IV
       Q  Q  Q   E E   a  Q  Q  Q   E E   a  Q  Q  Q   E E   a  Q  Q  Q   E E
    |----------------|------------------|------------------|-------------------|
    |----------------|------------------|------------------|-------------------|
    |----------------|------------------|------------------|-------------------|
    |-/9--9--9--x-5-|-5h=7--7--7--x-5-|-5h=7--7--7--x---|--------------x-x--|
    |-/7--7--7--x-5-|----5--5--5--x-5-|----5--5--5--x-5-|-5h=7--7--7--x-x--|
    |------------x---|--------------x---|--------------x-5-|----5--5--5--x-x--|
    
      E5                 D5                                  A5         N.C.
                                                                        ~
       Q  Q  Q   E E   a Q  Q  Q   E E   a Q  Q  Q   E E   a Q  Q  E  E Q
    |----------------|-----------------|-----------------|------------------|
    |----------------|-----------------|-----------------|------------------|
    |----------------|-----------------|-----------------|------------------|
    |-/9--9--9--x-5-|-5h7--7--7--x-5-|-5h7--7--7--x---|------------------|
    |-/7--7--7--x-5-|---5--5--5--x-5-|---5--5--5--x-5-|-5h7--7--7-------|
    |------------x---|-------------x---|-------------x-5-|---5--5--5-0-3---|
    
      E5                       D5                                  A5         N.C.
      Gtr III
                                                                              ~
       Q  Q  E  E    +E  E     Q  Q  Q   E E   a Q  Q  Q   E E   a Q  Q  E  E Q
    |----------------------|-----------------|-----------------|-------------------|
    |----------------------|-----------------|-----------------|-------------------|
    |----------------------|-----------------|-----------------|-------------------|
    |-/9--9--9--9b10r(9)s7-|---7--7--7--x-5-|-5h7--7--7--x---|-------------------|
    |-/7--7--7-------------|---5--5--5--x-5-|---5--5--5--x-5-|-5h7--7--7---------|
    |----------------------|-------------x---|-------------x-5-|---5--5--5--0-3----|
    |
    | Gtr IV
    |  Q  Q  Q        E  E   a Q  Q  Q   E E   a Q  Q  Q   E E   a Q  Q  Q    E E
    |----------------------|-----------------|-----------------|-------------------|
    |----------------------|-----------------|-----------------|-------------------|
    |----------------------|-----------------|-----------------|-------------------|
    |-/9--9--9-------x--5-|-5h7--7--7--x-5-|-5h7--7--7--x---|--------------x-x--|
    |-/7--7--7-------x--5-|---5--5--5--x-5-|---5--5--5--x-5-|-5h7--7--7---x-x--|
    |-----------------x----|-------------x---|-------------x-5-|---5--5--5---x-x--|
    
      E5                       D5
                                      ~~
       Q  Q  E  E    +E  E     Q  E E Q   E E
    |----------------------|------------------|
    |----------------------|------------------|
    |----------------------|------------------|
    |-/9--9--9--9b10r(9)s7-|---7--7s9p7---x-5-|
    |-/7--7--7-------------|---5----------x-5-|
    |----------------------|--------------x---|
    |
    |  Q  Q  Q        E  E   a Q  Q   Q   E E
    |----------------------|------------------|
    |----------------------|------------------|
    |----------------------|------------------|
    |-/9--9--9-------x--5-|-5h7--7---7--x-5-|
    |-/7--7--7-------x--5-|---5--5---5--x-5-|
    |-----------------x----|--------------x---|
    
             To Coda
                          A5          N.C.
                                       ~~
      a Q  Q  Q   E E   a Q  Q  E   E  Q
    |-----------------|----------------------||
    |-----------------|----------------------||
    |-----------------|----------------------||
    |-5h7--7--7--x---|----------------------||
    |---5--5--5--x-5-|-5h7--7--7------------||
    |-------------x-5-|---5--5--5---0--3-----||
    |
    |                                  ~~~~~
    | a Q  Q  Q   E E   a Q  Q  E   E  E  E
    |-----------------|----------------------||
    |-----------------|------------------12--||
    |-----------------|------------------12--||
    |-5h7--7--7--x---|---------------12-----||
    |---5--5--5--x-5-|-5h7--7--7-/14--------||
    |-------------x-5-|---5--5--5------------||
    
      Em                               D       DsDs4
      Gtr III
        E  E   E     E      Q    E E    E  E E E Q     E E
        |  |   |     |      |    | |    |  | | | |     | |
        /  /   x     /      /    x x    /  / x / /     x x
      Gtr IV
                                   ~~~~~~~~
       +Q     +E.       +S  E  E E E   +H        E   E E E
    |--------------------------------|---------------------|
    |-(12)---------------------------|---------------------|
    |-(12)---(12)b14---(12)------7---|-------------------7-|
    |-------------------------/9---7-|-(7)-------------5---|
    |--------------------------------|-----------7-/7-----|
    |--------------------------------|---------------------|
    
                DsDs4               Em            (B)(D)
      E    E  E E  Q      E   E     E E E E Q      E  E
      |    |  | |  |      |   |     | | | | |      |  |
      /    /  x /  /      x   x     / / x / /      o  o
           ~~~                      ~
      E   +Q.      E  E   S S E   a H       E   E  E  E
    |---------------------------|------------------------|
    |---------------------------|-----------------12-12--|
    |---------------------------|-----------------12-12--|
    |-7b9r(7)-----[5]-7b9-7p5---|------------------------|
    |-------------------------7-|-5h7---------/14--------|
    |---------------------------|-----------0------------|
    
      Em                               D       DsDs4
        E  E   E     E      Q    E E    E  E E E Q     E E
        |  |   |     |      |    | |    |  | | | |     | |
        /  /   x     /      /    x x    /  / x / /     x x
                                   ~~~~~~~~
       +Q     +E.       +S  E  E E E   +H        E   E E E
    |--------------------------------|---------------------|
    |-(12)---------------------------|---------------------|
    |-(12)---(12)b14---(12)------7---|-------------------7-|
    |-------------------------/9---7-|-(7)-------------5---|
    |--------------------------------|-----------7-/7-----|
    |--------------------------------|---------------------|
    
                Dsus4   D       A            (E(G)
      E    E  E E Q     E   E   E E  E E  E  E Q
      |    |  | | |     |   |   | |  | |  |  | |
      /    /  x / /     x   x   / /  x /  /  o o
                                         Gtr VI
           ~~~                    ~~      ~~~
      E   +Q.     E E   S S E   H         H
    |-------------------------|---------------------||
    |-------------------------|---------------------||
    |-------------------------|-----------4s========||
    |-7b9r(7)-----5-7b9-7p5---|---------------------||
    |-----------------------7-|-5h7------(7)--------||
    |-------------------------|---------------------||
                                E Q.     +H
    
     Interlude
      N.C.                   Em
      Gtr VI
      Q   a   Q   E  E  Q     H         E  E  Q
    |----------------------|----------------------|
    |----------------------|----------------------|
    |-9--(9)s12--12s11s12s=|==9--------12s11s12s==|
    |----------------------|----------------------|
    |----------------------|----------------------|
    |----------------------|----------------------|
    |
    | Gtr I
    |                   ~~~
    | Q       Q   E  E  Q     Q    E E  E  E  E E
    |----------------------|----------------------|
    |----------------------|----------------------|
    |----------------------|----------------------|
    |-------------5p=0-----|------------------5---|
    |--------/7---------7--|-(7)---7-------5----7-|
    |-0--------------------|--0------0--5---------|
    |
    | Gtr II
    | W                       Q    Q    Q     Q
    |----------------------|-----------------12---|
    |----------------------|-----------------12---|
    |----------------------|-----------12---------|
    |----------------------|------14--------------|
    |----------------------|----------------------|
    |----------------------|----------------------|
    
        H        E  E  Q      H         Q        Q
    |---------------------|----------------------------|
    |---------------------|----------------------------|
    |---9-------12s11s12s=|==14--------11s======12s====|
    |---------------------|----------------------------|
    |---------------------|----------------------------|
    |---------------------|----------------------------|
    |
    |                  ~~~                       ~~~
    |   Q    Q   E  E  Q      Q   E  E  E  E  a  Q
    |---------------------|----------------------------|
    |---------------------|----------------------------|
    |---------------------|----------------------------|
    |------------5p=0-----|----------------------------|
    |-------/7---------7--|--(7)--7-------4--4s=2-----|
    |---0-----------------|---0------0h=5-(5)-5s=3-----|
    |
    |  +W                    +H         Q        Q
    |-(12)----------------|-(12)-----------------------|
    |-(12)----------------|-(12)-----------------8-----|
    |---------------------|-------------9--------------|
    |---------------------|----------------------------|
    |---------------------|----------------------------|
    |---------------------|----------------------------|
    
      H       E  E  Q     H         E  E  Q
    |------------------|----------------------|
    |------------------|----------------------|
    |-9------12s11s12s=|==9--------12s11s12s==|
    |------------------|----------------------|
    |------------------|----------------------|
    |------------------|----------------------|
    |
    |               ~~~
    | Q   Q   E  E  Q     Q    E E  E  E  E E
    |------------------|----------------------|
    |------------------|----------------------|
    |------------------|----------------------|
    |---------5p=0-----|------------------5---|
    |----/7---------7--|-(7)---7-------5----7-|
    |-0----------------|--0------0--5---------|
    |
    | W                  +Q    Q    Q     Q
    |-7----------------|-(7)-------------12---|
    |-7----------------|-(7)-------------12---|
    |-9----------------|-(9)-------12---------|
    |------------------|------14--------------|
    |------------------|----------------------|
    |------------------|----------------------|
    
        H        E  E  Q      Q    +Q      H
    |---------------------|---------------10s=====|
    |---------------------|-----------------------|
    |---9-------12s11s12s=|==14---(14)-----------|
    |---------------------|-----------------------|
    |---------------------|-----------------------|
    |---------------------|-----------------------|
    |
    |                  ~~~                     ~
    |   Q    Q   E  E  Q      Q     E   E  E E Q
    |---------------------|-----------------------|
    |---------------------|-----------------------|
    |---------------------|-----------------------|
    |------------5p=0-----|-----------------------|
    |-------/7---------5--|---------5--------5----|
    |---0-----------------|---3---------3s=2---2--|
    |
    |  +W                    +W
    |-(12)----------------|-(12)------------------|
    |-(12)----------------|-(12)------------------|
    |---------------------|-----------------------|
    |---------------------|-----------------------|
    |---------------------|-----------------------|
    |---------------------|-----------------------|
    
       H       E  E  Q     H        E  E  Q
    |-12------15s14s15s=|=12-------15s14s15s==|
    |-------------------|---------------------|
    |-------------------|---------------------|
    |-------------------|---------------------|
    |-------------------|---------------------|
    |-------------------|---------------------|
    |
    |                ~~~
    |  Q   Q   E  E  Q     Q   E E  E  E  E E
    |-------------------|---------------------|
    |-------------------|---------------------|
    |-------------------|---------------------|
    |----------5p=0-----|-----------------5---|
    |-----/7---------7--|-(7)--7-------5----7-|
    |--0----------------|--0-----0--5---------|
    |
    |  Q   Q   Q     Q     Q   Q    Q     Q
    |--0-------0--------|--0--------0---------|
    |--8-------8--------|--8--------8-----7---|
    |--9-------9--------|--9--------9---------|
    |------9---------9--|------9--------------|
    |-------------------|---------------------|
    |-------------------|---------------------|
    
       H       E  E  Q     H         Q        Q
    |-12------15s14s15s=|=17--------14s======15s==|
    |-------------------|-------------------------|
    |-------------------|-------------------------|
    |-------------------|-------------------------|
    |-------------------|-------------------------|
    |-------------------|-------------------------|
    |
    |                ~~~                      ~~~
    |  Q   Q   E  E  Q     Q   E  E  E  E  a  Q
    |-------------------|-------------------------|
    |-------------------|-------------------------|
    |-------------------|-------------------------|
    |----------5p=0-----|-------------------------|
    |-----/7---------7--|-(7)--7-------4--4s=2---|
    |--0----------------|--0------0h=5-(5)-5s=3---|
    |
    |  Q   Q   Q     Q     Q   Q     Q        Q
    |--0-------0--------|--0---------0------------|
    |--8-------8--------|--8---------8------------|
    |--9-------9--------|--9---------9--------7---|
    |------9---------9--|------9------------------|
    |-------------------|-------------------------|
    |-------------------|-------------------------|
    
       H       E  E  Q     H        E  E  Q
    |-12------15s14s15s=|=12-------15s14s15s==|
    |-------------------|---------------------|
    |-------------------|---------------------|
    |-------------------|---------------------|
    |-------------------|---------------------|
    |-------------------|---------------------|
    |
    |                ~~~
    |  Q   Q   E  E  Q     Q   E E  E  E  E E
    |-------------------|---------------------|
    |-------------------|---------------------|
    |-------------------|---------------------|
    |----------5p=0-----|-----------------5---|
    |-----/7---------7--|-(7)--7-------5----7-|
    |--0----------------|--0-----0--5---------|
    |
    |  Q   Q   Q     Q     Q   Q    Q     Q
    |--0-------0--------|--0--------0---------|
    |--8-------8--------|--8--------8-----7---|
    |--9-------9--------|--9--------9---------|
    |------9---------9--|------9--------------|
    |-------------------|---------------------|
    |-------------------|---------------------|
    
                                 D.S. al Coda
       H       E  E  Q          H       H
    |-12------15s14s15s======|=17------19/------||
    |------------------------|------------------||
    |------------------------|------------------||
    |------------------------|------------------||
    |------------------------|------------------||
    |------------------------|------------------||
    |
    |                                        ~
    |  Q   Q   E  E  S   +E.    Q  E E  E  E Q
    |------------------------|------------------||
    |------------------------|------------------||
    |------------------------|------------------||
    |----------5h=7--7b8r(7)-|------------------||
    |-----/7-----------------|-----5-------5----||
    |--0---------------------|--3----3s=2----2--||
    |
    |  Q   Q   Q     Q          Q  Q    Q    Q
    |--0-------0-------------|--0-------0-------||
    |--8-------8-------------|--8-------8-------||
    |--9-------9-------------|--9-------9----7--||
    |------9---------9-------|-----9---------7--||
    |------------------------|------------------||
    |------------------------|------------------||
    
                  H.=H
      &
        A         N.C. (E5)
      Gtrs III, IV
                  ~
      a Q  Q  E E Q    W          +W           +W           +W
    |----------------|----------:------------:------------:--------||
    |----------------|----------:------------:------------:--------||
    |----------------|----------:------------:------------:--------||
    |----------------|----------:------------:------------:--------||
    |-5h7--7--7------|----------:------------:------------:--------||
    |---5--5--5-0-3--|-0--------:-(0)--------:-(0)--------:-(0)----||
    
      Q=116
      E5                        N.C.
      Gtr III
          PM|   PM|     PM|   PM
      E E E E E E E E   E E E E E  E  E E
    |-----------------|-------------------|
    |-----------------|-------------------|
    |-----------------|-------------------|
    |-7h9-----9-----9-|-----9--------10p9-|
    |-7-------7-----7-|-----7---7h10------|
    |-0---0-0-0-0-0-0-|-0-0-0-0-----------|
    
          E5                       N.C.
          ~~       PM|     PM|   PM
        a Q.   E E E E E   E E E E E  E  E E  3x
    ||-------------------|--------------------||
    ||o------------------|-------------------o||
    ||-------------------|--------------------||
    ||--7h9------9-----9-|-----9--------10p9--||
    ||o---7------7-----7-|-----7---7h10------o||
    ||---------0-0-0-0-0-|-0-0-0-0------------||
    
          E5                       N.C.
        Gtrs III, IV
          ~~       PM|     PM|   PM
        a Q.   E E E E E   E E E E E  E  E E  4x
    ||-------------------|--------------------||
    ||o------------------|-------------------o||
    ||-------------------|--------------------||
    ||--7h9------9-----9-|-----9--------10p9--||
    ||o---7------7-----7-|-----7---7h10------o||
    ||---------0-0-0-0-0-|-0-0-0-0------------||
    
         Bridge
            E5                       N.C.
            ~~       PM|     PM|   PM
          a Q.   E E E E E   E E E E E  E  E E  4x
    |-||-------------------|--------------------||
    |-||o------------------|-------------------o||
    |-||-------------------|--------------------||
    
    Узнай ВСЕ о своем друге в ВК или FB
    |-||--7h9------9-----9-|-----9--------10p9--|| |-||o---7------7-----7-|-----7---7h10------o|| |-||---------0-0-0-0-0-|-0-0-0-0------------|| Chorus E5 D5 Gtr III Q Q Q E E a Q Q Q E E |----------------|-----------------| |----------------|-----------------| |----------------|-----------------| |-/9--9--9--x-5-|-5h7--7--7--x-5-| |-/7--7--7--x-5-|---5--5--5--x-5-| |------------x---|-------------x---| | | Gtr IV | Q Q Q E E a Q Q Q E E |----------------|-----------------| |----------------|-----------------| |----------------|-----------------| |-/9--9--9--x-5-|-5h7--7--7--x-5-| |-/7--7--7--x-5-|---5--5--5--x-5-| |------------x---|-------------x---| A5 a Q Q Q E E a Q Q Q E E |-----------------|-----------------------------| |-----------------|-----------------------------| |-----------------|-----------------------------| |-5h7--7--7--x---|----------------------x----x-| |---5--5--5--x-5-|-5h7---7-------7-----x----x-| |-------------x-5-|---5---5-------5-----x----x-| | | a Q Q Q E E E E E E +E +E S E. |-----------------|-----------------------------| |-----------------|---------7b8==(7)r(7)--------| |-----------------|---5---5-7b9==(7)r(7)-5------| |-5h7--7--7--5-7-|-----7------------------7----| |---5--5--5------|-----------------------------| |-----------------|-----------------------------| E5 D5 Gtr III |-3-| |-3-| |-3-| Q Q Q E E a E E E E E E Q Q Q |----------------|---------------------| |----------------|---------------------| |----------------|---------------------| |-/9--9--9--x-5-|-5h7-7-7-7-7-7-7-x-x-| |-/7--7--7--x-5-|---5-5-5-5-5-5-5-x-x-| |------------x---|-----------------x-x-| | | Gtr IV | |-3-| |-3-| |-3-| | Q Q Q E E a E E E E E E Q Q Q |----------------|---------------------| |----------------|---------------------| |----------------|---------------------| |-/9--9--9--x-5-|-5h7-7-7-7-7-7-7-x-x-| |-/7--7--7--x-5-|---5-5-5-5-5-5-5-x-x-| |------------x---|-----------------x-x-| A5 N.C. ~ a Q Q Q E E a Q Q E E Q |-------------------|-----------------------| |-------------------|-----------------------| |-------------------|-----------------------| |-5h7--7--7--x-----|-----------------------| |---5--5--5--x-5---|-5h=7---7----7--------| |-------------x-5---|----5---5----5--0-3---| | | ~ | a Q Q Q E E +Q Q S S E Q |-------------------|-----------------------| |---------------8---|---(8)--8--------------| |-------------5-7b9-|---(7)--7b9--7p5-------| |-5h7--7--7---------|-----------------7-7---| |---5--5------------|-----------------------| |-------------------|-----------------------| E5 D5 A5 N.C. Gtr III ~ Q Q E E +E E Q Q Q E E a Q Q Q E E a Q Q E E Q |----------------------|-----------------|-----------------|------------------| |----------------------|-----------------|-----------------|------------------| |----------------------|-----------------|-----------------|------------------| |-/9--9--9--9b10r(9)s7-|---7--7--7--x-5-|-5h7--7--7--x---|------------------| |-/7--7--7-------------|---5--5--5--x-5-|---5--5--5--x-5-|-5h7--7--7--------| |----------------------|-------------x---|-------------x-5-|---5--5--5--0-3---| | | Gtr IV | ~ | Q Q Q E E a Q Q Q E E a Q Q Q E E a Q Q E E Q |----------------------|-----------------|-----------------|------------------| |----------------------|-----------------|-----------------|------------------| |----------------------|-----------------|-----------------|------------------| |-/9--9--9-------x--5-|-5h7--7--7--x-5-|-5h7--7--7--x---|------------------| |-/7--7--7-------x--5-|---5--5--5--x-5-|---5--5--5--x-5-|-5h7--7--7-------| |-----------------x----|-------------x---|-------------x-5-|---5--5--5-0-3---| E5 D5 Gtr V ~~~~ ~~~~~ ~~~~~ H. Q H. Q H. Q |--------------------------|----------------------|---------------------| |--5----------------8------|---10-----------------|---12----------------| |--7b9-------------10b12---|---12b14--------------|---14b16-------------| |--------------------------|----------------------|---------------------| |--------------------------|----------------------|---------------------| |--------------------------|----------------------|---------------------| | | Gtr III | ~~ | Q Q E E +E E Q E E Q E E a Q Q Q E E |--------------------------|----------------------|---------------------| |--------------------------|----------------------|---------------------| |--------------------------|----------------------|---------------------| |-/9----9--9--9b10r(9)s==7-|----7-----7s9p7---x-5-|-5h=7-----7--7--x---| |-/7----7--7---------------|----5-------------x-5-|----5-----5--5--x-5-| |--------------------------|------------------x---|-----------------x-5-| | | Gtr IV | Q Q Q E E a Q Q Q E E a Q Q Q E E |--------------------------|----------------------|---------------------| |--------------------------|----------------------|---------------------| |--------------------------|----------------------|---------------------| |-/9----9--9-------x----5-|-5h=7-----7---7--x-5-|-5h=7-----7--7--x---| |-/7----7--7-------x----5-|----5-----5---5--x-5-|----5-----5--5--x-5-| |-------------------x------|------------------x---|-----------------x-5-| A5 N.C. ~~~~~ S. +S. a +S +E E H |---------------------------------------------------|| |---15----------------------------15----15----------|| |---17b19==(17)r(17)b19-(17)-(17)-17b19-17b19-------|| |---------------------------------------------------|| |---------------------------------------------------|| |---------------------------------------------------|| | | ~ | a Q Q E E Q |---------------------------------------------------|| |---------------------------------------------------|| |---------------------------------------------------|| |---------------------------------------------------|| |-5h=7-------------------------7---------7----------|| |----5-------------------------5---------5----0-3---|| | | ~ | a Q Q E E Q |---------------------------------------------------|| |---------------------------------------------------|| |---------------------------------------------------|| |---------------------------------------------------|| |-5h=7-------------------------7---------7---------|| |----5-------------------------5---------5---0-3---|| Guitar Solo E5 N.C. Gtr V PM------| ~~ ~~ S S S S S E. Q E E +E E Q E E E E |---------------------------------|--------------------------| |---------------------------------|--------------------------| |-------------12-12---------12----|--------------14-12-------| |-------------12-12----14------12-|-(12)h14-14---------14-12-| |-12-12-14-14---------------------|--------------------------| |---------------------------------|--------------------------| | | Gtrs III, IV | PM----| PM| PM-| PM | E E E E E E E E E E E E E E E E |---------------------------------|--------------------------| |---------------------------------|--------------------------| |---------------------------------|--------------------------| |--7h====9--------------9-------9-|----------9---------10p=9-| |--7--------------------7-------7-|----------7----7h10-------| |--0-----------0-----0--0-0--0--0-|---0---0--0-0-------------| E5 N.C. ~~ ~~ E S S Q Q E E +E E E E E Q E |--------------------------|---------------------------------| |--------------------------|---------------------------------| |---x--x-x-----------------|------------------12b12.5--------| |---x--x-x-12---14---14-12-|-(12)-14-14-14-12-12b12.5--------| |--------------------------|---------------------------------| |--------------------------|-----------------------------12--| | | ~~ PM| PM-| PM | a Q. E E E E E E E E E E E E E |--------------------------|---------------------------------| |--------------------------|---------------------------------| |--------------------------|---------------------------------| |-7h9------------9-------9-|----------9---------------10p=9--| |---7------------7-------7-|----------7-----7h10-------------| |-------------0--0-0--0--0-|---0---0--0--0-------------------| E5 N.C. ~~ ~~~~~~~~~ ~~ E E E +E Q E E +E E Q Q Q |------------------------------|-------------------------| |------------------------------|--------------14---------| |---x--x-----------------12----|--------------14---------| |---x--x-12b13-(12)-14---14-12-|-(12)-14-14--------------| |------------------------------|--------------------12---| |------------------------------|-------------------------| | | ~~ PM| PM-| PM | a Q. E E E E E E E E E E E E E |------------------------------|-------------------------| |------------------------------|-------------------------| |------------------------------|-------------------------| |-7h9----------------9-------9-|----------9---------10p9-| |---7----------------7-------7-|----------7----7h10------| |----------------0---0-0--0--0-|---0---0--0-0------------| E5 N.C. ~~~ ~~~ ~~~ S E. E E S E. E E E E E E S E. E E |------------------------------------|-----------------------------| |-----------x-14b15----------x-14b15-|-12--------------------------| |---12------x-14b15-12-------x-14b15-|-12--------------------------| |-------14-------------14------------|----14-12----12h14-----12----| |------------------------------------|----------14--------------14-| |------------------------------------|-----------------------------| | | ~~~ PM| PM| PM | a Q. E E E E E E E E E E E E E |------------------------------------|-----------------------------| |------------------------------------|-----------------------------| |------------------------------------|-----------------------------| |-7h=9---------------9----------9----|--------9--------------10p=9-| |----7---------------7----------7----|--------7-----7h====10-------| |--------------0-----0-----0-0--0----|--0--0--0--0-----------------| B5 C5 A5 C5 A5 Gtrs III, IV Q Q E E E E E E Q E E E E | | | | | | | | | | | | / / / / / / / / / / / / Gtr V ~~~~~~ ~~~ |---3---| S S S S S S S S S S S S Q S +S S S S S S S S E Q. |-15-12----12----------------------------------|-----------------------------------------| |-------15----15-12----12----------------------|-----------------------------------------| |-------------------14----14-12----12-14b16====|=14r(14)p12----12-14-12-------12---------| |-------------------------------14-------------|------------14----------14-12----14------| |----------------------------------------------|-----------------------------------------| |----------------------------------------------|-----------------------------------------| B5 C5 Q Q E E E E | | | | | | / / / / / / ~~~~~ |--3--| S S S S S Q S S S S +S S S S |-12h15p12----12--------12------------------12-------| |----------15----15b17-----15-12-15b17-(15)----15p12-| |----------------------------------------------------| |----------------------------------------------------| |----------------------------------------------------| |----------------------------------------------------| A5 D5 E5 Gtr V S S S S S S S S S S S S S S S S |-------12-------------------------------------------| |-15b17----15p12-12-12-15p12-12-12-15p12-12-12-15p12-| |----------------------------------------------------| |----------------------------------------------------| |----------------------------------------------------| |----------------------------------------------------| | | Gtrs III, IV | E E Q E E E E |----------------------------------------------------| |----------------------------------------------------| |-----------------------------------7-----7-----9----| |-----------7-----7-----------x-----7-----7-----9----| |-----------7-----7-----------x-----5-----5-----7----| |-----------5-----5-----------x----------------------| E5 |--3--| |---------7---------| |--3--| |--3--| S S S S S S S S S S S S S S S S S S S S S S |----------------------------------------------------------------------| |----12-15p12----12h15p12------12h15p12-15p12----12h15p12----12h15p12--| |-14----------14----------14------------------14----------14-----------| |----------------------------------------------------------------------| |----------------------------------------------------------------------| |----------------------------------------------------------------------| | | PM---------| PM------| | E E E E E E E E |----------------------------------------------------------------------| |----------------------------------------------------------------------| |----------------------------------------------------------------------| |--7h====9-------------------------------9-----------------------9-----| |--7-------------------------------------7-----------------------7-----| |--0--------------0----------0-----------0-----0--------0--------0-----| N.C. ~~~~~ |------6-------| |--3--| S S S S S S S S S S S Q Q |---------------------------------------------------| |----12h15p12-12-12h15p12----15p12-15b17----15b17---| |-14----------------------14------------------------| |---------------------------------------------------| |---------------------------------------------------| |---------------------------------------------------| | | PM------| PM | E E E E E E E E |---------------------------------------------------| |---------------------------------------------------| |---------------------------------------------------| |--------------------9----------------------10p===9-| |--------------------7--------------7h===10---------| |--0--------0--------0--------0---------------------| E5 N.C. TP TP TP TP Q Q Q Q Q E E E E Q |-------------15--------|------------------------| |---12---14---15--------|-12---14-14-15-14-12----| |---12---14---15---14---|-12---14-14-15-14-12----| |-----------------------|------------------------| |-----------------------|------------------------| |-----------------------|------------------------| | | ~~~ PM| PM| PM | a Q. E E E E E E E E E E E E E |-----------------------|------------------------| |-----------------------|------------------------| |-----------------------|------------------------| |-7h=9---------9------9-|-------9----------10p9--| |----7---------7------7-|-------7-----7h10-------| |-----------0--0-0--0-0-|--0-0--0--0-------------| E5 N.C. ~~~~ ~~~ ~~~~ ~~~ E E +Q S S S S S E. E E +Q S S S S S E. |----------------------------------------|-------------------------------------| |------15b17-(15)---15-12----------------|---15b17-(15)---15-12----------------| |-------------------------14-12----------|----------------------14-12----------| |-------------------------------14-12----|----------------------------14-12----| |----------------------------------------|-------------------------------------| |----------------------------------------|-------------------------------------| | | ~~ PM---| PM| PM | a Q. E E E E E E E E E E E E E |----------------------------------------|-------------------------------------| |----------------------------------------|-------------------------------------| |----------------------------------------|-------------------------------------| |-7h9----------------9-----------------9-|-----------9----------------10p====9-| |---7----------------7-----------------7-|-----------7-----7h===10-------------| |-----------------0--0-----0-----0-----0-|-0--0------0--0----------------------| E5 N.C. ~~~~~~~~~~~~~ E E +Q E +E E E +E E E E E E E +E |---------------------------------------|--------------------------------------| |------15b17-(15)---15b17-(15)---15b17==|=(15)r-0-15b17-0-12----15b17==(15)r--| |---------------------------------------|-------0-------0-12-------------------| |---------------------------------------|--------------------14----------------| |---------------------------------------|--------------------------------------| |---------------------------------------|--------------------------------------| | | ~~ PM-| PM--| PM | a Q. E E E E E E E E E E E E E |---------------------------------------|--------------------------------------| |---------------------------------------|--------------------------------------| |---------------------------------------|--------------------------------------| |-7h9----------------9------------9-----|----------9------------10p======9-----| |---7----------------7------------7-----|----------7-------7h10----------------| |-----------------0--0------0--0--0-----|---0---0--0----0----------------------| E5 D5 a Q Q Q E a E +E E E a E +E E Q |-----------------------|---------------------------------| |-----------------------|---------------------------------| |--------------12-12s14-|---(14)-12-12-12s14-(14)-12-11---| |-7h=9--9--9------------|---------------------------------| |----7--7--7---10-10s12-|---(12)-10-10-10s12-(12)-10--9---| |-----------------------|---------------------------------| | | Q Q Q E E a Q Q Q E E |-----------------------|---------------------------------| |-----------------------|---------------------------------| |-----------------------|---------------------------------| |---/9--9--9---x-----5-|-5h==7------7---------7-----x-5-| |---/7--7--7---x-----5-|-----5------5---------5-----x-5-| |---------------x-------|-----------------------------x---| +E E E E E +E S S E |----------------------------------------| |----------------14-14b15r(14)-----------| |---(11)-----12-14-14b15r(14)-14p12-----| |---------/14------------------------14--| |----(9)--------------------------------| |----------------------------------------| | | a Q Q Q E E |----------------------------------------| |----------------------------------------| |----------------------------------------| |-5h==7--------7-----7---------x--------| |-----5--------5-----5---------x-----5--| |-------------------------------x-----5--| A5 ~~ |---3----| E E E E E E E Q |-----------------------------------| |------------15-12------------------| |---12-14b16-------14b15r14-12------| |------------------------------14---| |-----------------------------------| |-----------------------------------| | | a Q Q Q E E |-----------------------------------| |-----------------------------------| |-----------------------------------| |-------------------------------x-x-| |-5h=7--------7-----7----------x-x-| |----5--------5-----5----------x-x-| E5 D5 ~~ +Q Q Q E a E +E Q a E +E E Q |------------------------|--------------------------------| |------------------------|--------------------------------| |--------9--9---12-12s14-|---(14)-12---12s14-(14)-12-11---| |-(14)------------------|--------------------------------| |--------7--7---10-10s12-|---(12)-10---10s12-(12)-10--9---| |------------------------|--------------------------------| | | Q Q Q E E a Q Q Q E E |------------------------|--------------------------------| |------------------------|--------------------------------| |------------------------|--------------------------------| |--/9----9--9---x-----5-|-5h==7-----7---------7-----x-5-| |--/7----7--7---x-----5-|-----5-----5---------5-----x-5-| |----------------x-------|----------------------------x---| A5 N.C. E E E E E E E E E E Q S S E E +E |------------------------------|-------------------------------------|| |------------------------------|---12-14-14b15-----------------------|| |---11-/12-12s14-14s=16-------|---12-14-14b16--14--12----14b16-(14)-|| |------------------------12-14-|-----------------------14------------|| |----9-/10-10s12-12s=14-------|-------------------------------------|| |------------------------------|-------------------------------------|| | | ~~~~~ | a Q Q Q E E a Q Q E E Q |------------------------------|-------------------------------------|| |------------------------------|-------------------------------------|| |------------------------------|-------------------------------------|| |-5h=7-------7-----7-----x----|-------------------------------------|| |----5-------5-----5-----x--5-|-5h=7-----7------7------------------|| |-------------------------x--5-|----5-----5------5-----0--3---------|| N.C. Q +Q H W |-------------------|-------------------| |-12----------------|-------------------| |-12--(12)---------|-------------------| |-------------------|-------------------| |-------------------|-------------------| |-------------------|-------------------| | | Gtrs III, IV | ~ | Q Q E E Q Q E E E E E E |-------------------|-------------------| |-------------------|-------------------| |-------------------|-------------------| |------------5p0----|--------------5----| |------/7--------7--|-(7)--7-----5---7--| |--0----------------|--0-----0-5--------| Gtrs III, IV ~ ~ ~ Q Q E E Q Q E E E E a Q Q Q E E Q |---------------|----------------------|---------------| |---------------|----------------------|---------------| |---------------|----------------------|---------------| |--------5p0----|----------------------|--------5p0----| |----/7------7--|-(7)--7------4--4s2--|----/7------7--| |-0-------------|--0------0h5-(5)-5s3--|-0-------------| ~ ~ Q E E E E E E Q Q E E Q Q E E E E Q |------------------|---------------|---------------| |------------------|---------------|---------------| |------------------|---------------|---------------| |--------------5---|--------5p0----|---------------| |-(7)--7-----5---7-|----/7------5--|----5-----5----| |--0-----0-5-------|-0-------------|-3----3s2---2--| Gtr I ~ ~ ~ Q Q E E Q Q E E E E E E Q Q E E Q Q E E E E a Q |---------------|------------------|---------------|----------------------| |---------------|------------------|---------------|----------------------| |---------------|------------------|---------------|----------------------| |--------5p0----|--------------5---|--------5p0----|----------------------| |----/7------7--|-(7)--7-----5---7-|----/7------7--|-(7)--7------4--4s2--| |-0-------------|--0-----0-5-------|-0-------------|--0------0h5-(5)-5s3--| ~ ~ Q Q E E Q Q E E E E E E Q Q E E S +E. Q E E E E Q |---------------|------------------|--------------------|---------------|| |---------------|------------------|--------------------|---------------|| |---------------|------------------|--------------------|---------------|| |--------5p0----|--------------5---|--------5h7-7b8r(7)-|---------------|| |----/7------7--|-(7)--7-----5---7-|----/7--------------|----5-----5----|| |-0-------------|--0-----0-5-------|-0------------------|-3----3s2---2--|| Verse 3 Em Gtr I ~ ~ Q Q E E Q Q E E E E E E Q Q E E Q |---------------|---------------------|------------------| |---------------|---------------------|------------------| |---------------|---------------------|------------------| |--------5p0----|-----------------5---|-----------5p0----| |----/7------7--|-(7)---7------5----7-|-------/7------7--| |-0-------------|--0------0--5--------|---0--------------| | | Gtr II | W Q Q Q Q +W |---------------|----------------12---|-(12)-------------| |---------------|----------------12---|-(12)-------------| |---------------|-----------12--------|------------------| |---------------|------14-------------|------------------| |---------------|---------------------|------------------| |---------------|---------------------|------------------| ~ ~ Q E E E E a Q Q Q E E Q |-----------------------|-----------------| |-----------------------|-----------------| |-----------------------|-----------------| |-----------------------|--------5p0------| |--(7)--7------4--4s2--|----/7------7----| |---0------0h5-(5)-5s3--|-0---------------| | | +H Q Q W |-(12)------------------|-7---------------| |-(12)---------------8--|-7---------------| |------------9----------|-9---------------| |-----------------------|-----------------| |-----------------------|-----------------| |-----------------------|-----------------| ~ Q E E E E E E Q Q E E Q |---------------------|------------------| |---------------------|------------------| |---------------------|------------------| |-----------------5---|-----------5p0----| |-(7)---7------5----7-|-------/7------5--| |--0------0--5--------|---0--------------| | | +Q Q Q Q +W |-(7)------------12---|-(12)-------------| |-(7)------------12---|-(12)-------------| |-(9)-------12--------|------------------| |------14-------------|------------------| |---------------------|------------------| |---------------------|------------------| Em ~ ~ E E E E E +E Q Q Q E E Q Q E E E E E E |-----------------------|---------------|---------------------| |-----------------------|---------------|---------------------| |-----------------------|---------------|---------------------| |----------5-7b9r(7)-5--|--------5p0----|-----------------5---| |------5h7--------------|----/7------7--|-(7)---7------5----7-| |-----------------------|-0-------------|--0------0--5--------| | | +W W Q Q Q Q |-(12)------------------|---------------|----------------12---| |-(12)------------------|---------------|----------------12---| |-----------------------|---------------|-----------12--------| |-----------------------|---------------|------14-------------| |-----------------------|---------------|---------------------| |-----------------------|---------------|---------------------| ~ ~ Q Q E E Q Q E E E E a Q |------------------|-----------------------| |------------------|-----------------------| |------------------|-----------------------| |-----------5p0----|-----------------------| |-------/7------7--|--(7)--7------4--4s2--| |---0--------------|---0------0h5-(5)-5s3--| | | +W +H Q Q |-(12)-------------|-(12)------------------| |-(12)-------------|-(12)---------------8--| |------------------|------------9----------| |------------------|-----------------------| |------------------|-----------------------| |------------------|-----------------------| ~ Q Q E E Q Q E E E E E E |---------------|---------------------| |---------------|---------------------| |---------------|---------------------| |--------5p0----|-----------------5---| |----/7------7--|-(7)---7------5----7-| |-0-------------|--0------0--5--------| | | W +Q Q Q Q |-7-------------|-(7)------------12---| |-7-------------|-(7)------------12---| |-9-------------|-(9)-------12--------| |---------------|------14-------------| |---------------|---------------------| |---------------|---------------------| H.=H Em ~ ~ Q Q E E Q Q E E E E Q W +W |------------------|------------------|--0--------|-(0)----*| |------------------|------------------|--0--------|-(0)----*| |------------------|------------------|--0--------|-(0)----*| |-----------5p0----|------------------|--2--------|-(2)----*| |-------/7------5--|-------5-----5----|--2--------|-(2)----*| |---0--------------|---3-----3s2---2--|--0--------|-(0)----*| | | +W +W W +W |-(12)-------------|-(12)-------------|-^0--------|-(0)----*| |-(12)-------------|-(12)-------------|-^8--------|-(8)----*| |------------------|------------------|-^9--------|-(9)----*| |------------------|------------------|-----------|--------*| |------------------|------------------|-----------|--------*| |------------------|------------------|-----------|--------*| Duration Legend --------------- W - whole; H - half; Q - quarter; E - 8th; S - 16th; T - 32nd; X - 64th; a - acciaccatura + - note tied to previous; . - note dotted; .. - note double dotted Uncapitalized letters represent notes that are staccato (1/2 duration) Irregular groupings are notated above the duration line Duration letters will always appear directly above the note/fret number it represents the duration for. Duration letters with no fret number below them represent rests. Multi- bar rests are notated in the form Wxn, where n is the number of bars to rest for. Low melody durations appear below the staff Tablature Legend ---------------- h - hammer-on p - pull-off b - bend pb - pre-bend r - bend release (if no number after the r, then release immediately) / - slide into or out of (from/to "nowhere") s - legato slide S - shift slide - natural harmonic [n] - artificial harmonic n(n) - tapped harmonic ~ - vibrato tr - trill T - tap TP - trem. picking PM - palm muting n/ - tremolo bar dip; n = amount to dip n - tremolo bar down n/ - tremolo bar up /n - tremolo bar inverted dip = - hold bend; also acts as connecting device for hammers/pulls <> - volume swell (louder/softer) x - on rhythm slash represents muted slash o - on rhythm slash represents single note slash Misc Legend ----------- | - bar || - double bar ||o - repeat start o|| - repeat end *| - double bar (ending) : - bar (freetime) $ - Segno & - Coda Tempo markers - = BPM(8/16=s8/s16), where s8 = swing 8ths, s16 = swing 16ths *************************************************************************************** * Generated using Power Tab Editor by Brad Larsen - http://powertab.guitarnetwork.org * ***************************************************************************************

    http://www.powertabs.net
    найти лекарство
    список лекарств






    О сайтеАккордыХит-парадПоискУроки ФорумыИщу песню
    ПрограммыСвежачок-сПодпискаСтатьи
    Яндекс.Метрика