Табулатура The Music | The People гитара табулатуры уроки тексты песен The Music текст lyrics песня аккорды песни ноты нота электрогитара струна  
   А Б В Г Д Е Ж З И К Л М Н О П Р С Т У Ф Х Ч Ш Ы Э Ю Я       Разные песни
1-9 A B C D E F G H I J K L M N O P Q R S T U V W Y Z      Все исполнители

    



группа The Music, Табулатура песни The People

Группа: The Music - другие аккорды (7),   диски (1)
Табулатура песни: The People
Просмотров: 846
Прислал: Кс-82




    
Tuning: standard E A D G B e
Intro: x2
-|--------------------------------------------------------------------------|-
-|--------------------------------------------------------------------------|-
-|--------------------------------------------------------------------------|-
-|--------------------------------------------------------------------------|-
-|-3-3-3h5---------------3-3-3h5------3-3-3h5-------------------------------|-
-|-------------------------------3v-----------------------------------------|-
Verse 1: x4
-|--------------------------------------------------------------------------|-
-|--------------------------------------------------------------------------|-
-|--------------------------------------------------------------------------|-
-|--------------------------------------------------------------------------|-
-|-3-3-3h5---------------3-3-3h5------3-3-3h5---------------3-3-3h5---------|-
-|-------------------------------3v---------------------------------3v------|-
Verse 2: x4
-|--------------------------------------------------------------------------|-
-|--------------------------------------------------------------------------|-
-|--------------------------------------------------------------------------|-
-|--------------------------------------------------------------------------|-
-|-3-3-3h5-x-5p3-3h5-x-5h3-3-3h5------3-3-3h5-x-5p3-3h5-x-5p3-3-3h5---------|-
-|-------------------------------3v---------------------------------3v------|-
Pre-chorus: x2 
-|--------------------------------------------------------------------------|-
-|--------------------------------------------------------------------------|-
-|--------------------------------------------------------------------------|-
-|--------------------------------------------------------------------------|-
-|--------------------------------------------------------------------------|-
-|--5\\-\\\\-\\\\-\\\\\\-\\\\\\\\\\\\---------------2-//-/-///-/-////-///////--///-/------|-

Продолжаем грести бабос на ботах в Telegram.
Только в этот раз есть вариант автоматизировать это дело, привлекая рефералов. Вы можете заработать если »

Chorus 1: x4 -|--------------------------------------------------------------------------|- -|--------------------------------------------------------------------------|- -|--------------------------------------------------------------------------|- -|--------------------------------------------------------------------------|- -|-3-3-3h5-x-5p3-3h5-x-5h3-3-3h5------3-3-3h5-x-5p3-3h5-x-5p3-3-3h5---------|- -|-------------------------------3v---------------------------------3v------|- Verse 3: x10 -|--------------------------------------------------------------------------|- -|--------------------------------------------------------------------------|- -|--------------------------------------------------------------------------|- -|--------------------------------------------------------------------------|- -|--------------------------------------------------------------------------|- -|-x\\-\\\\-\\-\\\\-\\-\\--\\---\\-\\--\\---x/-//-///-//////-//-------------------------|- Chorus 2: Bridge: x8 -|--------------------------------------------------------------------------|- -|-----6-------6---------6-------6---------6-------6---------6-------6------|- -|-5h7---7-5h7-----7-5h7---7-5h7-----7-5h7---7-5h7-----7-5h7---7-5h7-----7--|- -|--------------------------------------------------------------------------|- -|--------------------------------------------------------------------------|- -|--------------------------------------------------------------------------|- -|--------------------------------------------------------------------------|- -|-----6-------6---------6-------6---------6-------6------------------------|- -|-5h7---7-5h7-----7-5h7---7-5h7-----7-5h7---7-5h7-----7\\\\------------------|- -|--------------------------------------------------------------------------|- -|--------------------------------------------------------------------------|- -|--------------------------------------------------------------------------|-








О сайтеАккордыХит-парадПоискУроки ФорумыИщу песню
ПрограммыСвежачок-сПодпискаСтатьи
Яндекс.Метрика