Табулатура Король и Шут | Камнем По Голове (2) гитара табулатуры уроки тексты песен Король и Шут текст lyrics песня аккорды песни ноты нота электрогитара струна  
   А Б В Г Д Е Ж З И К Л М Н О П Р С Т У Ф Х Ч Ш Ы Э Ю Я       Разные песни
1-9 A B C D E F G H I J K L M N O P Q R S T U V W Y Z      Все исполнители in english

    



группа Король и Шут, Табулатура песни Камнем По Голове (2)

Продолжаем грести бабос на ботах в Telegram.
Только в этот раз есть вариант автоматизировать это дело, привлекая рефералов. Вы можете заработать если »

Группа: Король и Шут - другие аккорды (277),   о группе (10 статей),   диски (9),   фотографии (68)
Табулатура песни: Камнем По Голове (2)
Просмотров: 6021
Подобрал: Sataniel (necros665@yandex.ru)




    
КОРОЛЬ И ШУТ - КАМНЕМ ПО ГОЛОВЕ
 Часть A: играется без distortion. аккорды играются один раз.
 
  Am        F         Dm        E 
-|-5---------1---------5---------0-|------------------------------------------
-|-5---------1---------6---------0-|------------------------------------------
-|-5---------2---------7---------1-|------------------------------------------
-|-7---------3---------7---------2-|------------------------------------------
-|-7---------3---------5---------2-|------------------------------------------
-|-5---------1-------------------0-|------------------------------------------
 в  про...   был пра.. но  вот.. возник  зловещий          
Часть B: играется с distortion, приглушая струны ребром правой руки. играется 
параллельно с Частью A.
  A5               F5               D5               E5
-|------------------------------------------------------------------------|---
-|------------------------------------------------------------------------|---
-|-----------------------------------7-7-7-7-7-7-7-7----------------------|---
-|-7-7-7-7-7-7-7-7--3-3-3-3-3-3-3-3--7-7-7-7-7-7-7-7--2-2-2-2-2-2-2-2-----|---
-|-7-7-7-7-7-7-7-7--3-3-3-3-3-3-3-3--5-5-5-5-5-5-5-5--2-2-2-2-2-2-2-2-----|---
-|-5-5-5-5-5-5-5-5--1-1-1-1-1-1-1-1-------------------0-0-0-0-0-0-0-0-----|---
   в провин ...     был праздни ...  но вот  ....     возник...  
 
Часть C: играется с distortion. аккорды играются один раз и сразу приглушаются.
 Е5 играть без приглушения
                                                                            
  A5          F5          G5          E5
-|------------------------------------------------------|---------------------
-|------------------------------------------------------|---------------------
-|------------------------------------------------------|---------------------
-|7-x---------1-x---------5-x---------2-2-2-2-2-2-2-2---|---------------------
-|7-x---------3-x---------5-x---------2-2-2-2-2-2-2-2---|---------------------
-|5-x---------3-x---------3-x---------0-0-0-0-0-0-0-0---|---------------------
 он  шёл...   толпа...   и как-то...  смотрели местные...                
Часть D: играется с distortion без приглушения перед Частью Е .
    E5
-|-----------------------------------|----------------------------------------
-|-----------------------------------|----------------------------------------
-|--9-9--9--9-9--9--9-9--9--9-9--9-9-|----------------------------------------
-|--9-9--9--9-9--9--9-9--9--9-9--9-9-|----------------------------------------
-|--7-7--7--7-7--7--7-7--7--7-7--7-7-|----------------------------------------
-|-----------------------------------|----------------------------------------

Продолжаем грести бабос на ботах в Telegram.
Только в этот раз есть вариант автоматизировать это дело, привлекая рефералов. Вы можете заработать если »

Часть E: играется с distortion без приглушения A5 G5 C5 F5 -|---------------------------------------------------------------------|------ -|---------------------------------------------------------------------|------ -|---------------------------------5-5-5-5-5-5-5-5---------------------|------ -|-7-7-7-7-7-7-7-7-5-5-5-5-5-5-5-5-5-5-5-5-5-5-5-5-3-3-3-3-3-3-3-3-----|------ -|-7-7-7-7-7-7-7-7-5-5-5-5-5-5-5-5-3-3-3-3-3-3-3-3-3-3-3-3-3-3-3-3-----|------ -|-5-5-5-5-5-5-5-5-3-3-3-3-3-3-3-3-----------------1-1-1-1-1-1-1-1-----|------ в чёрном цилиндре в наряде старинном D5 E5 -|---------------------------------------------------|------------------------ -|---------------------------------------------------|------------------------ -|--7-7-7-7-7-7-7-7-7-7-7-7-7-7-7-7-9-9-9-9-9-9-9-9--|------------------------ -|--7-7-7-7-7-7-7-7-7-7-7-7-7-7-7-7-9-9-9-9-9-9-9-9--|------------------------ -|--5-5-5-5-5-5-5-5-5-5-5-5-5-5-5-5-7-7-7-7-7-7-7-7--|------------------------ -|---------------------------------------------------|------------------------ в город на праздник путник очень спешил Проиграйте Часть Е два раза, но второй раз уже с другими словами: по горам и т.д. Дальше всё повторяется с начала, только изменяются слова и в части С те же аккорды играются несколько раз. можно играть по своему, главное не менять аккорды. Можно мотать башкой из стороны в сторону и играть в такт (Как киши на концерте играют). Часть F: играется в самом конце с distortion (просто все аккорды песни) аккорды играются один раз без глушения. A5 F5 D5 G5 E5 -|--------------------------------------------|------------------------------- -|--------------------------------------------|------------------------------- -|---------------------7----------------------|------------------------------- -|-7---------3---------7---------5---------2--|------------------------------- -|-7---------3---------5---------5---------2--|------------------------------- -|-5---------1-------------------3---------0--|------------------------------- соло во время второй части припева -|---5-5-5-3-1-3--------3-3--8-8-0---5-5-5-5-5-5--12-12-12-12-12-12--|--------- -|---------------1---------------------------------------------------|--------- -|-------------------------------------------------------------------|--------- -|-------------------------------------------------------------------|--------- -|-------------------------------------------------------------------|--------- -|-------------------------------------------------------------------|--------- по горам... и улыбался но камень сорвался... ПАНКИ ХОЙ!!!!!!!

поиск лекарств
список лекарств






О сайтеАккордыХит-парадПоискУроки ФорумыИщу песню
ПрограммыСвежачок-сПодпискаСтатьи
Яндекс.Метрика