Табулатура System Of A Down | Roulette (2) гитара табулатуры уроки тексты песен System Of A Down текст lyrics песня аккорды песни ноты нота электрогитара струна  
   А Б В Г Д Е Ж З И К Л М Н О П Р С Т У Ф Х Ч Ш Ы Э Ю Я       Разные песни
1-9 A B C D E F G H I J K L M N O P Q R S T U V W Y Z      Все исполнители in english

    



группа System Of A Down, Табулатура песни Roulette (2)

Группа: System Of A Down - другие аккорды (73),   диски (8),   фотографии (22)
Табулатура песни: Roulette (2)
Просмотров: 2477
Подобрал: Naota (kinosmak@mail.natm.ru)




    
Not horry:
1.A (4)
2.B (2)
3.A (4)
4.B (4)
5.A (4)
  C (2)
6.B (4)
&.A (4)
------------------------------------------------------------
-----4------4-----8------3-----3-----6------6-----4-----3---
------------------------------------------------------------  x4   (A)
------------------------------------------------------------
---3---3--3---3\\6---6--1---1-1---1\\4---4--4-----------------
----------------------------------------------3-4---4-1-----
------------------------------------------------------------
-----4------4-----6------6------3------3-----6-----3--------
------------------------------------------------------------  x2   (B) 
------------------------------------------------------------
---3---3--3---3\\5---5--5---5--1---1--1---1\\4---------------- -----------------------------------------------4-1----------

8--8-10-11--10-11-13--10-11-13-11-10-11-13-11-11-10-8------- ------------------------------------------------------------

Продолжаем грести бабос на ботах в Telegram.
Только в этот раз есть вариант автоматизировать это дело, привлекая рефералов. Вы можете заработать если »

------------------------------------------------------------ ------------------------------------------------------------ ------------------------------------------------------------ ------------------------------------------------------------ x2 (C) ---------------------------------------8---6-6-3-3-3-3------ --8-8---8-9-11-9-8-9-11-9-9-8-6--5-5---9---8-8-6-6-4-4------ ------------------------------------------------------------ ------------------------------------------------------------ ------------------------------------------------------------ ------------------------------------------------------------ Finish: -------2-------- ------3--------- -----2---------- ----0----------- ---------------- ----------------








О сайтеАккордыХит-парадПоискУроки ФорумыИщу песню
ПрограммыСвежачок-сПодпискаСтатьи
Яндекс.Метрика