Табулатура Metallica | Astronomy гитара табулатуры уроки тексты песен Metallica текст lyrics песня аккорды песни ноты нота электрогитара струна  
   А Б В Г Д Е Ж З И К Л М Н О П Р С Т У Ф Х Ч Ш Ы Э Ю Я       Разные песни
1-9 A B C D E F G H I J K L M N O P Q R S T U V W Y Z      Все исполнители in english

    



группа Metallica, Табулатура песни Astronomy

Работа в Европе для граждан РФ, Украины, СНГ

  • минимальная зарплата $500.
  • виза и контракт на полгода, возможно продление
  • проживание оплачивает работодатель
  • нужен только загранпаспорт
  • оформление 190 €
  • данное предложение - отличная возможность эмигрировать в Европу и закрепиться здесь навсегда.

  • Мы свяжемся с Вами по WhatsApp или Viber и ответим на любые вопросы.
    на нашем сайте можно почитать подробнее »

    Группа: Metallica - другие аккорды (225),   о группе (32 статей),   диски (11),   фотографии (49)
    Табулатура песни: Astronomy
    Просмотров: 2959
    Прислал: xAL (xal@akkords.ru)




        
    #----------------------------------PLEASE NOTE---------------------------------#
    #This file is the author's own work and represents their interpretation of the #
    #song. You may only use this file for private study, scholarship, or research. #
    #------------------------------------------------------------------------------##
                                        ASTRONOMY
                                As recorded by Metallica
                            (From the 1998 Album GARAGE INC.)
    Words and Music by Samuel Pearlman, Albert Bouchard and Joseph Bouchard
    Transcribed by Hembo
              Em                    D                    C                    B
          x 7 9 9 8 x          x 5 7 7 7 x          x 3 5 5 5 x          x 2 4 4 4 x
          Em(type 2)            C(type 2)               G6                   B7
          0 2 2 0 0 0          x 3 2 0 1 0          3 x 0 0 3 0          x 2 1 2 0 2
              D5                   C5
          x 5 7 7 x x          x 3 5 5 x x
    Gtr I (Eb Ab Db Gb Bb Eb) - 'Gtr I'
    Gtr II (Eb Ab Db Gb Bb Eb) - 'Gtr II'
    Gtr III (Eb Ab Db Gb Bb Eb) - 'Gtr III'
    Gtr IV (Eb Ab Db Gb Bb Eb) - 'Gtr IV'
    Gtr V (Eb Ab Db Gb Bb Eb) - 'Gtr V'
    Gtr VI (Eb Ab Db Gb Bb Eb) - 'Gtr VI'
     Intro
      Moderately Slow Rock Q=86
                            N.C.
     4/4
      Gtr I - synthesator
      W          W          E S S E S S +S  E. E S S
    |----------|----------|--------------------------|
    |----------|----------|--------------------------|
    |----------|----------|-------2-2-0-(0)----------|
    |----------|----------|-2-2-2-----------4--------|
    |----------|----------|--------------------5-5-5-|
    |----------|----------|--------------------------|
    
      E S S +S  S E +S  E S E S S
    |-----------------------------|
    |-------------------2-2-3-3-3-|
    |-------------2-(2)-2-2-------|
    |-----4-(4)-4-4-(4)-----------|
    |-5-5-5-(5)-5-----------------|
    |-----------------------------|
    
      +S  S E Q  Q  E E   E. S +S  S E +S  E S E S S
    |-----------------3-|-3----------0-(0)------------|
    |-(3)-3-3-----------|----5-(5)-5-3-(3)------------|
    |-------------------|------------------0-0-2-2-2--|
    |-------------------|-----------------------------|
    |-------------------|-----------------------------|
    |-------------------|-----------------------------|
    
      Em
                                   >
       Q   H            E    E    +H           H
    |------------------12------|----------------------------|
    |-----------------------12-|-(12)-----------------------|
    |--------------------------|----------------------------|
    |--------------------------|----------------------------|
    |------7-------------------|----------------------------|
    |--------------------------|----------------------------|
    |
    | Gtr II
    |  Q.    E +S  E S  S S  E     E. S +E  E +S  E S S S E
    |-^0-----------0-0---------|-^-0--0-(0)---------0-------|
    |-^0-----------0-----------|-^-0--0-(0)-------0---------|
    |-^0----------------4-2--0-|-^-0--------------0---4-2-0-|
    |-^2-----------------------|-^-2----------------------0-|
    |-^2-----------------------|-^-2------------------------|
    |-^0-----0-(0)-------------|-^-0--------0-(0)-----------|
    
      Gtr II
       E. S +S  S E +S  E S S S E    E. S +S  S E +S  S S S S S S S
    |-^0--------0---------0-------|-^0--------0-----------0---------|
    |-^0--0-(0)-0-------0---------|-^0--0-(0)-0-------0-0-----------|
    |-^0--0-(0)---------0---4p2-0-|-^0--0-(0)---------0-0---4p2-0h2-|
    |-^2--------------------------|-^2------------------------------|
    |-^2--------------------------|-^2------------------------------|
    |-^0----------0-(0)-----------|-^0----------0-(0)---------------|
    
       E. S +S  S E +S  E S S S E    E. S +S  S E +S  E S S S E
    |-^0--------0---------0-------|-^0--------0---------0-------||
    |-^0--0-(0)-0-------0---------|-^0--0-(0)-0-------0---------||
    |-^0--0-(0)---------0---4-2-0-|-^0--0-(0)---------0---4-2-0-||
    |-^2--------------------------|-^2--------------------------||
    |-^2--------------------------|-^2--------------------------||
    |-^0----------0-(0)-----------|-^0----------0-(0)-----------||
    
       Verse
        $
        Em           D                 C     B
                                      2/4
        Gtr III
        H            H                 Q     Q
        |            |                 |     |
        /            /                 /     /
        E. S +S  E S E S S +S  S S S   E S S E S S
    ||--0--------0-0-2---0-(0)-0---0-|-----3---3-3-|
    ||o-0--0-(0)-0-0-3---3-(3)-3-3---|---3-----3-3-|
    ||--0--0-(0)-----2---2-(2)-2-----|---0-----0-0-|
    ||--2------------0-0-------------|-2-----------|
    ||o-2----------------------------|-3-----2-----|
    ||--0----------------------------|-------------|
    
      Em                         Em           D
     4/4
      W                          H            H
      |                          |            |
      /                          /            /
      E. S +E  E +S  E S S S E   E. S +S  E S E S S +S  S S S
    |----------0-(0)-0-0-------|-0--------0-0-2---0-(0)-0---0-|
    |----------0-(0)-0-0-------|-0--0-(0)-0-0-3---3-(3)-3-3-3-|
    |----------0-(0)-----4-2-0-|-0--0-(0)-----2---2-(2)-2---0-|
    |-2--2-(2)-2-(2)-----------|-2------------0-0-------------|
    |-2--2-(2)-2-(2)-----------|-2----------------------------|
    |-0--0-(0)-0-(0)-----------|-0----------------------------|
    
      C     B       Em(type 2)
     2/4           4/4
      Q     Q       W
      |     |       |
      /     /       /
      E S S E S S   E. S +E  E +S  E S E E
    |---0-0---0-0-|----------0-(0)-0-0-0-0-|
    |---3-3---3-3-|----------0-(0)-0-0-0-0-|
    |---0-0---0-0-|----------0-(0)-----0---|
    |-2-----------|-2--2-(2)-2-(2)-----2---|
    |-3-----2-----|-2--2-(2)-2-(2)---------|
    |-------------|-0--0-(0)-0-(0)---------|
    
      C(type 2)    G6              C(type 2)    B7
      H            H               H            H
      |            |               |            |
      /            /               /            /
      E. S +S  E S E S S +S  E S   E. S +S  E S E. S +S  E S
    |----0-(0)-0-0-------------0-|----0-(0)-0-0------------0-|
    |----3-(3)-3-3-----3-(3)-3---|----3-(3)-3-3----0-(0)-0-0-|
    |----0-(0)-0-0-----0-(0)-0---|----0-(0)-0-0----0-(0)-0-0-|
    |-2--------------0-------0---|-2---------------4-(4)-4---|
    |-3--------------------------|-3------------2------------|
    |--------------3-------------|---------------------------|
    
      Em           D                 C     B
                                    2/4
      H            H                 Q     Q
      |            |                 |     |
      /            /                 /     /
      E. S +S  E S E S S +S  S S S   E S S E S S
    |-0--------0-0-2---0-(0)-0---0-|-----3---3-3-|
    |-0--0-(0)-0-0-3---3-(3)-3-3---|---3-----3-3-|
    |-0--0-(0)-----2---2-(2)-2-----|---0-----0-0-|
    |-2------------0-0-------------|-2-----------|
    |-2----------------------------|-3-----2-----|
    |-0----------------------------|-------------|
    
      1.
      Em(type 2)
     4/4
       W                          +W
       |                           |
       /                           /
       E. S +E  E +S  E S S S E    E. S +S  S E +S  E S S S E
    |-^0--0-(0)---------0-------|-^0--------0---------0-------|
    |-^0--0-(0)-------0---------|-^0--0-(0)-0-------0---------|
    |-^0--------------0---4-2-0-|-^0--0-(0)---------0---4p2-0-|
    |-^2----------------------0-|-^2--------------------------|
    |-^2------------------------|-^2--------------------------|
    |-^0--------0-(0)-----------|-^0----------0-(0)-----------|
    
       W
       |
       /
       E. S +S  S E +S  S S S S S S S
    |-^0--------0-----------0----------|
    |-^0--0-(0)-0-------0-0------------|
    |-^0--0-(0)---------0-0---4p2-0h2--|
    |-^2-------------------------------|
    |-^2-------------------------------|
    |-^0----------0-(0)----------------|
    
       W
       |
       /
       E. S +S  S E +S  E S S S E
    |-^0--------0---------0--------||
    |-^0--0-(0)-0-------0---------o||
    |-^0--0-(0)---------0---4-2-0--||
    |-^2---------------------------||
    |-^2--------------------------o||
    |-^0----------0-(0)------------||
    
      2.
      Em(type 2)
       W                           W
       |                           |
       /                           /
       E. S +E  E +S  E S S S E    E. S +S  S E +S  E S S S E
    |-^0--0-(0)---------0-------|-^0--------0---------0--------|
    |-^0--0-(0)-------0---------|-^0--0-(0)-0-------0----------|
    |-^0--------------0---4-2-0-|-^0--0-(0)---------0---4p2-0--|
    |-^2----------------------0-|-^2---------------------------|
    |-^2------------------------|-^2---------------------------|
    |-^0--------0-(0)-----------|-^0----------0-(0)------------|
    
       Interlude
        Em(type 2)      D      C                   Em(type 2)
        Gtr II
        H               H      H                   H
        |               |      |                   |
        /               /      /                   /
        Gtr IV
                        ~                          ~
        S S  S S S  S E H      S S  S S S  S   +E  H
    ||-----------------------|---------------------------||
    ||o----------------------|--------------------------o||
    ||-----------------------|---------------------------||
    ||--9p7s=5h7----5---4----|-9p7s=5h7----5b6-(5)-------||
    ||o----------------------|---------------------7----o||
    ||-----------------------|---------------------------||
    |
    |   Gtr V
    |                   ~                          ~
    |   S S  S S S  S E H      S S  S S S  S    E  H
    ||-----------------------|---------------------------||
    ||o----------------------|--------------------------o||
    ||-----------------------|---------------------------||
    ||--9p7----7-------------|-9p7----7------------------||
    ||o-----10-----10---9----|-----10-----10-------7----o||
    ||-----------------------|---------------------------||
    
      Em(type 2)         D      C                  Em(type 2)
      H                  H      H                  H
      |                  |      |                  |
      /                  /      /                  /
                         ~                         ~
      S S  S S S  S S  S H      S S  S S S  S S  S H
    |-------------------------|-------------------------|
    |-5p3h=5-5----------------|-------------------------|
    |-------------4----4s7----|-5p4----5----4----2s4----|
    |-------------------------|------7------------------|
    |-------------------------|-------------------------|
    |-------------------------|-------------------------|
    |
    |                    ~                         ~
    | S S  S S S  S S  S H      S S  S S S  S S  S H
    |-------------------------|-------------------------|
    |-------------------------|-------------------------|
    |-------------------------|-------------------------|
    |-9p7----7----------------|-9p7----7----------------|
    |-----10-----10---10-9----|-----10-----10---10-7----|
    |-------------------------|-------------------------|
    
                                         To Coda
      Em(type 2)         D      C
                               2/4
                                Gtr II
      H                  H      H
      |                  |      |
      /                  /      /
                         ~
      S S  S S S  S S  S H      S S  S S S  S S  S
    |-------------------------|---------------------|
    |-5p3h=5-5----------------|---------------------|
    |-------------4----4s7----|-5p4----5----4----4h=|
    |-------------------------|------7--------------|
    |-------------------------|---------------------|
    |-------------------------|---------------------|
    |
    |                    ~
    | S S  S S S  S S  S H      S S  S S S  S S  S
    |-------------------------|---------------------|
    |-------------------------|---------------------|
    |-------------------------|---------------------|
    |-9p7----7----------------|-9p7----7------------|
    |-----10-----10---10-9----|-----10-----10---10--|
    |-------------------------|---------------------|
    
                 D                  Em                C
     4/4
      H           H                 W
      |           |
      /           /
      ~~          ~~~                 PM      PM  PM|
      E. S +E  E  E. S +E   E       E S S +S  S E S S e E E
    |---------------------------||----------------------------|
    |---------------------------||o---------------------------|
    |-5--------5S=7---------7---||--------------------5-5-5S==|
    |----5-(5)-------7-(7)------||--2---2-(2)---2-----5-5-5S==|
    |---------------------------||o-2---2-(2)---2-----3-3-3S==|
    |---------------------------||--0-0-0-(0)-0-0-0-0---------|
    |
    | ~~~~~~~~~~~~~~~~~~~~~~~~~~
    | H           Q.       +E       E S S +S  S E S S e E S S
    |---------------------------||----------------------------|
    |---------------------------||o-8-x-8-(8)-x-------5-5-x-x-|
    |---------------------------||--9-x-9-(9)-x-9-x-x---------|
    |---------------------------||--9-x-9-(9)-x-9-x-x-5-5-x-x-|
    |-7----------/9--------(9)-||o-7-x-7-(7)-x-7-x-x-3-3-x-x-|
    |---------------------------||----------------------------|
    
      1.                              2.
      D           Dsus2 E5            D            Dsus2 E5
      E S S +S  S E S S e   E E        E S S +S  S E S S e E E
    |------------------------------||----------------------------|
    |-----------------------------o||----------------------------|
    |-7---7-(7)---7-x-x------------||-/7---7-(7)---7-x-x---------|
    |-7---7-(7)---7-x-x-2---2-2----||-/5---7-(7)---7-x-x-2-2-2---|
    |-5-5-5-(5)-5-5-x-x-2---2-2---o||-/5-5-5-(5)-5-5-x-x-2-2-2---|
    |-------------------0---0-0----||--------------------0-0-0---|
    |
    | E S S +S  S E S S S S E S S      E S S +S  S E S S E E S S
    |-------------5-x-x------------||--------------5-x-x---------|
    |-7-x-7-(7)-x-5-x-x-----------o||--7-x-7-(7)-x-5-x-x---------|
    |-------------7-x-x-9---9-x-x--||--------------7-x-x-9-9-x-x-|
    |-7-x-7-(7)-x-7-x-x-9-9-9-x-x--||--7-x-7-(7)-x-7-x-x-9-9-x-x-|
    |-5-x-5-(5)-x-5-x-x-7---7-x-x-o||--5-x-5-(5)-x-5-x-x-7-7-x-x-|
    |------------------------------||----------------------------|
    
       Bridge
        Em                C         D           Dsus2 Em
          PM      PM  PM|
        E S S +S  S E S S e E E     E S S +S  S E S S e   E E    7x
    ||----------------------------|------------------------------||
    ||o---------------------------|-----------------------------o||
    ||--------------------5-5-5S==|=7---7-(7)---7-x-x------------||
    ||--2---2-(2)---2-----5-5-5S==|=7---7-(7)---7-x-x-2---2-2----||
    ||o-2---2-(2)---2-----3-3-3S==|=5-5-5-(5)-5-5-x-x-2---2-2---o||
    ||--0-0-0-(0)-0-0-0-0---------|-------------------0---0-0----||
    |
    |   E S S +S  S E S S e E S S   E S S +S  S E S S S S E S S  7x
    ||----------------------------|-------------5-x-x------------||
    ||o-8-x-8-(8)-x-------5-5-x-x-|-7-x-7-(7)-x-5-x-x-----------o||
    ||--9-x-9-(9)-x-9-x-x---------|-------------7-x-x-9---9-x-x--||
    ||--9-x-9-(9)-x-9-x-x-5-5-x-x-|-7-x-7-(7)-x-7-x-x-9-9-9-x-x--||
    ||o-7-x-7-(7)-x-7-x-x-3-3-x-x-|-5-x-5-(5)-x-5-x-x-7---7-x-x-o||
    ||----------------------------|------------------------------||
    
      Em                C          D5 C5   D5   C5
                                   Gtrs IV, V
      W                            E. S +E E +S S E S S E
                                   |  |  | |  | | | | | |
                                   /  /  / /  / / / / / /
        PM      PM  PM|
      E S S +S  S E S S e E E      W
    |----------------------------|------------------------|
    |----------------------------|------------------------|
    |-------------------5-5-5/---|------------------------|
    |-2---2-(2)---2-----5-5-5/---|------------------------|
    |-2---2-(2)---2-----3-3-3/---|------------------------|
    |-0-0-0-(0)-0-0-0-0----------|------------------------|
    |
    | E S S +S  S E S S e E S  S   W
    |----------------------------|------------------------|
    |-8-x-8-(8)-x-------5-5-x--x-|------------------------|
    |-9-x-9-(9)-x-9-x-x----------|------------------------|
    |-9-x-9-(9)-x-9-x-x-5-5-x--x-|------------------------|
    |-7-x-7-(7)-x-7-x-x-3-3-x--x-|------------------------|
    |----------------------------|------------------------|
    
      D5 C5   D5   C5          D5 C5   D5   C5
      E. S +E E +S S E S S E   E. S +E E +S S E E E
      |  |  | |  | | | | | |   |  |  | |  | | | |
      /  /  / /  / / / / / /   /  /  / /  / / / /
      W                        W
    |------------------------|----------------------|
    |------------------------|----------------------|
    |------------------------|----------------------|
    |------------------------|----------------------|
    |------------------------|----------------------|
    |------------------------|----------------------|
    
      N.C.
      Gtr V
                            ~~~~~~~~~
       S  S  S  S  S   S S  S    +Q.                 E
    |-19p17----17-----------------------------------------|
    |-------20--------20---17---(17)----------------------|
    |-----------------------------------------------------|
    |-----------------------------------------------------|
    |-----------------------------------------------------|
    |-----------------------------------------------------|
    |
    | Gtr IV
    |                                                   ~~~
    |  Q          +E.       S     S  S  S  S S  E       S
    |-----------------------------------------------------|
    |-----------------------------------------------------|
    |----------------------------16p14s12-14---12b13------|
    |--------------------------------------------------14-|
    |--7----------(7)------(7)/---------------------------|
    |-----------------------------------------------------|
    
                         ~~~~~~
        S  S  S S S  S S S +Q       +E.     +S
    |---------------------------------------------|
    |---------------------------------------------|
    |---------------------------------------------|
    |---9p=7----7---------------------------------|
    |--------10-----10---7-(7)------(7)-----(7)S==|
    |---------------------------------------------|
    |
    |~~~~~~
    |  +H                   S S S S  S  E    S
    |---------------------------------------------|
    |---------------------------------------------|
    |---------------------------------------------|
    |-(14)-----------------9p7s5h7-----5b6-------|
    |----------------------------------------7----|
    |---------------------------------------------|
    
                                              Em
       S  S S S S S E H      +W           +E  Q.   +H
    |----------------------|------------|-----0----(0)----||
    |----------------------|------------|-----0----(0)----||
    |----------------------|------------|-----0----(0)----||
    |----------------------|------------|-----2----(2)----||
    |--2p=0---0------------|------------|-----------------||
    |-------3-----3---0----|-(0)--------|-(0)-------------||
    |
    |                                      >
    | +W                     +W           +W
    |----------------------|------------|-----------------||
    |----------------------|------------|-----------------||
    |----------------------|------------|-----------------||
    |----------------------|------------|-----------------||
    |-(7)------------------|-(7)--------|-(7)-------------||
    |----------------------|------------|-----------------||
    
      Em
      Gtr III
       W                           W
       |                           |
       /                           /
       E. S +E  E +S  E S S S E    E. S +S  S E +S  E S S S E
    |-^0--0-(0)---------0-------|-^0--------0---------0-------|
    |-^0--0-(0)-------0---------|-^0--0-(0)-0-------0---------|
    |-^0--------------0---4-2-0-|-^0--0-(0)---------0---4p2-0-|
    |-^2----------------------0-|-^2--------------------------|
    |-^2------------------------|-^2--------------------------|
    |-^0--------0-(0)-----------|-^0----------0-(0)-----------|
    
                                                        D.S. al Coda
       W                                 W
       |                                 |
       /                                 /
       E. S +S  S E +S  S S S S S S S    E. S +S  S E +S  E S S S E
    |-^0--------0-----------0---------|-^0--------0---------0---------|
    |-^0--0-(0)-0-------0-0-----------|-^0--0-(0)-0-------0-----------|
    |-^0--0-(0)---------0-0---4p2-0h2-|-^0--0-(0)---------0---4-2-0---|
    |-^2------------------------------|-^2----------------------------|
    |-^2------------------------------|-^2----------------------------|
    |-^0----------0-(0)---------------|-^0----------0-(0)-------------|
    
      &
      C                       D
        H                      H
        |                      |
        /                      /
      Gtr VI
        E   S  S  S   S  S  S  Q     E   E
    |----------------------------------------||
    |----------------------------------------||
    |-------------------------------11-------||
    |-/14--14-14-14--14-14-14-----------14---||
    |----------------------------------------||
    |----------------------------------------||
    |
    | Gtr IV
    |   ~~~~                   ~~~
    |   E.     S +E      E     E. S +E   E
    |----------------------------------------||
    |----------------------------------------||
    |---5----------------5S====7---------7---||
    |----------5-(5)--------------7-(7)------||
    |----------------------------------------||
    |----------------------------------------||
    |
    | Gtr V
    |   ~~~~~~~~~~~~~~~~~~~~~~~~~~~~~~~~~~~~~
    |   H                      Q.       +E
    |----------------------------------------||
    |----------------------------------------||
    |----------------------------------------||
    |----------------------------------------||
    |---7---------------------/9--------(9)-||
    |----------------------------------------||
    
     Guitar Solo
      Em                          C
       W
                        ~~~~~~~
       E.    S  +S   S  E  +S   S  S  S  S  S  S  S
    |-----------------------------------------------|
    |-----------------------------------------------|
    |-----------------------------------------------|
    |-14----12-(12)-12-14-(14)----------14----14-12-|
    |--------------------------14-12h14----15-------|
    |-----------------------------------------------|
    |
    |     PM         PM     PM-|
    |  E  S  S  +S   S  E   S   S  e     E     E
    |-----------------------------------------------|
    |-----------------------------------------------|
    |------------------------------5-----5-----5S===|
    |--2-----2--(2)-----2----------5-----5-----5S===|
    |--2-----2--(2)-----2----------3-----3-----3S===|
    |--0--0--0--(0)--0--0---0---0-------------------|
    |
    |  E  S  S  +S   S  E   S   S  e     E     S  S
    |-----------------------------------------------|
    |--8--x--8--(8)--x-------------5-----5-----x--x-|
    |--9--x--9--(9)--x--9---x---x-------------------|
    |--9--x--9--(9)--x--9---x---x--5-----5-----x--x-|
    |--7--x--7--(7)--x--7---x---x--3-----3-----x--x-|
    |-----------------------------------------------|
    
      D                  Dsus2     E5
                          ~~~~~~~
       S  S  S  S  S   S  E  +E     E       E  S  S
    |-----------------------------------------------|
    |------------------------------14b15------------|
    |------------------------------14b16---12----12-|
    |-14-14----12-----12-14-(14)--------------14----|
    |-------14--------------------------------------|
    |-----------------------------------------------|
    |
    |  E     S  S +S   S  E   S  S  e       E  E
    |-----------------------------------------------|
    |-----------------------------------------------|
    |--7--------7-(7)-----7---x--x------------------|
    |--7--------7-(7)-----7---x--x--2-------2--2----|
    |--5-----5--5-(5)--5--5---x--x--2-------2--2----|
    |-------------------------------0-------0--0----|
    |
    |  E     S  S +S   S  E   S  S  S    S  E  S  S
    |---------------------5---x--x------------------|
    |--7-----x--7-(7)--x--5---x--x------------------|
    |---------------------7---x--x--9-------9--x--x-|
    |--7-----x--7-(7)--x--7---x--x--9----9--9--x--x-|
    |--5-----x--5-(5)--x--5---x--x--7-------7--x--x-|
    |-----------------------------------------------|
    
      Em                                C
       E  +S   S  +E     S  +S   +S   S  +E   S  S  S  S
    |-------------------------------------------------------|
    |-14-(14)-14-(14)---14-(14)-(14)-14-(14)----------------|
    |-14-(14)-14-(14)---14-(14)-(14)-14-(14)-12----12-14b16-|
    |-------------------------------------------14----------|
    |-------------------------------------------------------|
    |-------------------------------------------------------|
    |
    |      PM         PM          PM-|
    |  E   S   S  +S  S  E        S   S   e   E     E
    |-------------------------------------------------------|
    |-------------------------------------------------------|
    |-------------------------------------5---5-----5S======|
    |--2-------2--(2)----2----------------5---5-----5S======|
    |--2-------2--(2)----2----------------3---3-----3S======|
    |--0---0---0--(0)-0--0--------0---0---------------------|
    |
    |  E   S   S  +S  S  E        S   S   e   E     S  S
    |-------------------------------------------------------|
    |--8---x---8--(8)-x-------------------5---5-----x--x----|
    |--9---x---9--(9)-x--9--------x---x---------------------|
    |--9---x---9--(9)-x--9--------x---x---5---5-----x--x----|
    |--7---x---7--(7)-x--7--------x---x---3---3-----x--x----|
    |-------------------------------------------------------|
    
      D                       Dsus2                E5
                                                          ~~
       +S   S  T  T  S  S   S  S  S       +S   +S   S  S  E  +S  T T
    |------12--------------------------------------------------------|
    |---------15p12--------------------------------------------------|
    |-(14)----------14-12-----12-14pb15==(14)r(14)-12-14-12-(12)S9p7-|
    |----------------------14----------------------------------------|
    |----------------------------------------------------------------|
    |----------------------------------------------------------------|
    |
    |   E      S     S +S   S  E           S    S   e     E   E
    |----------------------------------------------------------------|
    |----------------------------------------------------------------|
    |---7------------7-(7)-----7-----------x----x--------------------|
    |---7------------7-(7)-----7-----------x----x---2-----2---2------|
    |---5------5-----5-(5)--5--5-----------x----x---2-----2---2------|
    |-----------------------------------------------0-----0---0------|
    |
    |   E      S     S +S   S  E           S    S   S  S  E   S  S
    |--------------------------5-----------x----x--------------------|
    |---7------x-----7-(7)--x--5-----------x----x--------------------|
    |--------------------------7-----------x----x---9-----9---x--x---|
    |---7------x-----7-(7)--x--7-----------x----x---9--9--9---x--x---|
    |---5------x-----5-(5)--x--5-----------x----x---7-----7---x--x---|
    |----------------------------------------------------------------|
    
      Em                    C
      E S S +S  S  E  +S  S S  S  S  S S S
    |-----------------------7s=9--9--9------|
    |-----8-(8)---10-(10)-8-8s10-10-10------|
    |-9-9-7-(7)-9--9--(9)-7-7s=9--9--9-9-9--|
    |-9-9-----------------------------------|
    |---------------------------------------|
    |---------------------------------------|
    |
    |   PM      PM     PM-|
    | E S S +S  S  E   S  S e     E    E
    |---------------------------------------|
    |---------------------------------------|
    |-----------------------5-----5----5S===|
    |-2---2-(2)----2--------5-----5----5S===|
    |-2---2-(2)----2--------3-----3----3S===|
    |-0-0-0-(0)-0--0---0--0-----------------|
    |
    | E S S +S  S  E   S  S e     E    S S
    |---------------------------------------|
    |-8-x-8-(8)-x-----------5-----5----x-x--|
    |-9-x-9-(9)-x--9---x--x-----------------|
    |-9-x-9-(9)-x--9---x--x-5-----5----x-x--|
    |-7-x-7-(7)-x--7---x--x-3-----3----x-x--|
    |---------------------------------------|
    
      D                   Dsus2  E5              Em                          C
                                                                   ~~~~~~~
        S  S  S  S  +E     E E    S  S  E  S S    S  S S  S  S  S  E  +S   S  S  S  S  S  S  S
    |-/12-12-10-12-(12)----0-0---------12-12-x-|-----------------------------------------------|
    |--------10-10-(10)----------11s12-------x-|--------------------------------------12-------|
    |---------------------/9-9-----------------|--------------------------------------12-------|
    |------------------------------------------|-14-14-x-12-----x-14-(14)----------14----14-12-|
    |------------------------------------------|--------------------------12-12h14-------------|
    |------------------------------------------|-----------------------------------------------|
    |
    |                                                  PM       PM     PM-|
    |   E     S  S  +S  S  E S S  e     E  E      E    S  S +S  S  E   S   S  e     E     E
    |------------------------------------------|-----------------------------------------------|
    |------------------------------------------|-----------------------------------------------|
    |---7--------7--(7)----7-x-x---------------|------------------------------5-----5-----5S===|
    |---7--------7--(7)----7-x-x--2-----2--2---|--2-------2-(2)----2----------5-----5-----5S===|
    |---5-----5--5--(5)-5--5-x-x--2-----2--2---|--2-------2-(2)----2----------3-----3-----3S===|
    |-----------------------------0-----0--0---|--0----0--0-(0)-0--0---0---0-------------------|
    |
    |   E     S  S  +S  S  E S S  S  S  E  S S    E    S  S +S  S  E   S   S  e     E     S  S
    |----------------------5-x-x---------------|-----------------------------------------------|
    |---7-----x--7--(7)-x--5-x-x---------------|--8----x--8-(8)-x-------------5-----5-----x--x-|
    |----------------------7-x-x--9-----9--x-x-|--9----x--9-(9)-x--9---x---x-------------------|
    |---7-----x--7--(7)-x--7-x-x--9--9--9--x-x-|--9----x--9-(9)-x--9---x---x--5-----5-----x--x-|
    |---5-----x--5--(5)-x--5-x-x--7-----7--x-x-|--7----x--7-(7)-x--7---x---x--3-----3-----x--x-|
    |------------------------------------------|-----------------------------------------------|
    
      D                  Dsus2     C
       S  S  S  S  S   S S  S S  E    S  E  +E
    |-----------------------------------------------||
    |----------12-----12---12---12---12-------------||
    |----------12-----12---12---12---12-------------||
    |-14-14-14--------------------------14-(14)----||
    |-----------------------------------------------||
    |-----------------------------------------------||
    |
    |  E     S  S +S   S E    S  S e     E   E
    |-----------------------------------------------||
    |-----------------------------------------------||
    |--7--------7-(7)----7----x--x------------------||
    |--7--------7-(7)----7----x--x-2-----2---2------||
    |--5-----5--5-(5)--5-5----x--x-2-----2---2------||
    |------------------------------0-----0---0------||
    |
    |  E     S  S +S   S E    S  S S  S  E   S   S
    |--------------------5----x--x------------------||
    
    Узнай ВСЕ о своем друге в ВК или FB
    |--7-----x--7-(7)--x-5----x--x------------------|| |--------------------7----x--x-9-----9---x---x--|| |--7-----x--7-(7)--x-7----x--x-9--9--9---x---x--|| |--5-----x--5-(5)--x-5----x--x-7-----7---x---x--|| |-----------------------------------------------|| Em C D Dsus2 E5 PM PM PM| E S S +S S E S S e E E E S S +S S E S S e E E 3x ||----------------------------|------------------------------|| ||o---------------------------|-----------------------------o|| ||--------------------5-5-5S==|=7---7-(7)---7-x-x------------|| ||--2---2-(2)---2-----5-5-5S==|=7---7-(7)---7-x-x-2---2-2----|| ||o-2---2-(2)---2-----3-3-3S==|=5-5-5-(5)-5-5-x-x-2---2-2---o|| ||--0-0-0-(0)-0-0-0-0---------|-------------------0---0-0----|| | | E S S +S S E S S e E S S E S S +S S E S S S S E S S 3x ||----------------------------|-------------5-x-x------------|| ||o-8-x-8-(8)-x-------5-5-x-x-|-7-x-7-(7)-x-5-x-x-----------o|| ||--9-x-9-(9)-x-9-x-x---------|-------------7-x-x-9---9-x-x--|| ||--9-x-9-(9)-x-9-x-x-5-5-x-x-|-7-x-7-(7)-x-7-x-x-9-9-9-x-x--|| ||o-7-x-7-(7)-x-7-x-x-3-3-x-x-|-5-x-5-(5)-x-5-x-x-7---7-x-x-o|| ||----------------------------|------------------------------|| Interlude N.C. Gtr VI ~~~~~~~~~~ ~~~~~~~~~~~~~~~~~~~~~~ W H +Q. E W H +Q. E |-15--------|------------------|--------------|-----------------| |-----------|-13----(13)----15h|====17--------|-----------------| |-----------|------------------|--------------|-12----(12)---14-| |-----------|------------------|--------------|-----------------| |-----------|------------------|--------------|-----------------| |-----------|------------------|--------------|-----------------| | | Gtr IV | ~~~~~~~~~~ ~~~~~~~~~~~~~~~~~~~~~~ | W H +Q. E a W H +Q. E |-----------|------------------|--------------|-----------------| |-12--------|--8-----(8)---/10-|-10h12--------|-----------------| |-----------|------------------|--------------|-----------------| |-----------|------------------|--------------|--9-----(9)---11-| |-----------|------------------|--------------|-----------------| |-----------|------------------|--------------|-----------------| ~~~~~~~~~~~~~~~~~~~~~~ ~~~~~~~~~~ W H +Q. E H +Q. S S |--------------|-----------------|---------------------------| |----12--------|-----------------|-12----(12)---------12h13--| |--------------|-12----(12)---14-|---------------------------| |--------------|-----------------|---------------------------| |--------------|-----------------|---------------------------| |--------------|-----------------|---------------------------| | | ~~~~~~~~~~~~~~~~~~~~~~ | a W H +Q. E H +E. +S +Q |--------------|-----------------|---------------------------| |--------------|-----------------|---------------------------| |-11h12--------|-5-----(5)----4-|-/9-----(9)-(9)-(9)--------| |--------------|-----------------|---------------------------| |--------------|-----------------|---------------------------| |--------------|-----------------|---------------------------| ~~~~~~~~ W |----------------------------------------------------------------------------------------| |-12-------------------------------------------------------------------------------------| |----------------------------------------------------------------------------------------| |----------------------------------------------------------------------------------------| |----------------------------------------------------------------------------------------| |----------------------------------------------------------------------------------------| | | |-----3------| | +E +E +E +S +S +S +S +E +S +S +E +S +S |----------------------------------------------------------------------------------------| |----------------------------------------------------------------------------------------| |-(9)b9.5==(9)r(9)b9.5==(9)r(9)b9.5==(9)r(9)b9.5==(9)r(9)b9.5==(9)r(9)b9.5==(9)r(9)b9.5==| |----------------------------------------------------------------------------------------| |----------------------------------------------------------------------------------------| |----------------------------------------------------------------------------------------| E. S +E E +S E. E E |---------------------------------------------14----| |-12---------------13-------(13)-15--(15)-17-----15-| |---------------------------------------------------| |---------------------------------------------------| |---------------------------------------------------| |---------------------------------------------------| | | ~~~~ | +S +S +S +S +E +E +H |---------------------------------------------------| |---------------------------------------------------| |-(9)r(9)b9.5==(9)r(9)b9.5===(9)r(9)--(9)-----------| |---------------------------------------------------| |---------------------------------------------------| |---------------------------------------------------| E. S +E E +S E. E E |--------14--(14)--15-(15)-/17--19-17-|| |-17----------------------------------|| |-------------------------------------|| |-------------------------------------|| |-------------------------------------|| |-------------------------------------|| | | S S S S H. |-------------------------------------|| |-------------------------------------|| |-------------------------------------|| |-------------------------------------|| |-------------------------------------|| |--xS0-0-[2]--[2]/--------------------|| Chorus/Outro solo E5 D5 Gtr VI E. S +E E +E E Q |-15------15-----(15)---15-----(15)---14----14--------| |-18b20---18b20==(18)---18b20==(18)---17b19-17b19-----| |-----------------------------------------------------| |-----------------------------------------------------| |-----------------------------------------------------| |-----------------------------------------------------| | | Gtrs IV, V | PM PM PM-| | E S S +S S E S S e E S S |-----------------------------------------------------| |-----------------------------------------------------| |--------------------------------------7-----7----x-x-| |--2-------2------(2)----2-------------7-----7----x-x-| |--2-------2------(2)----2-------------5-----5----x-x-| |--0----0--0------(0)-0--0-------0--0-----------------| C5 D5 E. S +E E +E E Q |-12------12-----(12)---12-----(12)---14----14--------| |-15b17---15b17==(15)---15b17==(15)---17b19-17b19-----| |-----------------------------------------------------| |-----------------------------------------------------| |-----------------------------------------------------| |-----------------------------------------------------| | | PM PM PM | E S S +S S E S S e E S S |-----------------------------------------------------| |-----------------------------------------------------| |--5-------5------(5)----5-------x--x--7-----7----x-x-| |--5-------5------(5)----5-------x--x--7-----7----x-x-| |--3----3--3------(3)-3--3-------x--x--5-----5----x-x-| |-----------------------------------------------------| E5 D5 ~~~~~~~~~~~ |-----3-----| E. S +E E +E S S S +S S S T +T |-15------15-----(15)---15-----(15)---15-17-17pb19r(17)p15-17-17pb19r(17)pb19r=| |-18b20---18b20==(18)---18b20==(18)--------------------------------------------| |------------------------------------------------------------------------------| |------------------------------------------------------------------------------| |------------------------------------------------------------------------------| |------------------------------------------------------------------------------| | | PM PM PM-| | E S S +S S E S S e E S S |------------------------------------------------------------------------------| |------------------------------------------------------------------------------| |--------------------------------------7-----7--------------x--x---------------| |--2-------2------(2)----2-------------7-----7--------------x--x---------------| |--2-------2------(2)----2-------------5-----5--------------x--x---------------| |--0----0--0------(0)-0--0-------0--0------------------------------------------| C5 D5 ~~ |-----------6-----------| |--3---| |------3------| S S S S +S S S T +T +S S S S +S S S S Q |-(17)p15-17-17pb19r(17)p==15-17--17pb19r(17)-(17)p15-17-17pb19r(17)p==15-17-15--------| |-------------------------------------------------------------------------------15-----| |--------------------------------------------------------------------------------------| |--------------------------------------------------------------------------------------| |--------------------------------------------------------------------------------------| |--------------------------------------------------------------------------------------| | | PM PM PM | E S S +S S E S S e E S S |--------------------------------------------------------------------------------------| |--------------------------------------------------------------------------------------| |---5--------------------5----(5)---------------5---------x----------x-----7-----7-x-x-| |---5--------------------5----(5)---------------5---------x----------x-----7-----7-x-x-| |---3---------3----------3----(3)--3------------3---------x----------x-----5-----5-x-x-| |--------------------------------------------------------------------------------------| E5 D5 E. S +E E +E E Q |-15------15-----(15)---15-----(15)---14----14--------| |-18b20---18b20==(18)---18b20==(18)---17b19-17b19-----| |-----------------------------------------------------| |-----------------------------------------------------| |-----------------------------------------------------| |-----------------------------------------------------| | | PM PM PM-| | E S S +S S E S S e E S S |-----------------------------------------------------| |-----------------------------------------------------| |--------------------------------------7-----7----x-x-| |--2-------2------(2)----2-------------7-----7----x-x-| |--2-------2------(2)----2-------------5-----5----x-x-| |--0----0--0------(0)-0--0-------0--0-----------------| C5 D5 E. S +E E +E E Q |-12------12-----(12)---12-----(12)---14----14--------| |-15b17---15b17==(15)---15b17==(15)---17b19-17b19-----| |-----------------------------------------------------| |-----------------------------------------------------| |-----------------------------------------------------| |-----------------------------------------------------| | | PM PM PM | E S S +S S E S S e E S S |-----------------------------------------------------| |-----------------------------------------------------| |--5-------5------(5)----5-------x--x--7-----7----x-x-| |--5-------5------(5)----5-------x--x--7-----7----x-x-| |--3----3--3------(3)-3--3-------x--x--5-----5----x-x-| |-----------------------------------------------------| E5 D5 |--3--| E. S +S S E E S S T T T S S S |-15------15-----(15)-15--15-----15------15-19-15h19p15----15-19-| |-18b20---18b20==(18)-18r-18b20==18b20------------------17-------| |----------------------------------------------------------------| |----------------------------------------------------------------| |----------------------------------------------------------------| |----------------------------------------------------------------| | | PM PM PM---| | E S S +S S E S S e E S S |----------------------------------------------------------------| |----------------------------------------------------------------| |-----------------------------------------7-----7-----------x--x-| |--2-------2------(2)------2--------------7-----7-----------x--x-| |--2-------2------(2)------2--------------5-----5-----------x--x-| |--0----0--0------(0)--0---0------0----0-------------------------| C5 D5 ~~ |--3--| |--3---| T T T S S S T T T S S S T T S S S Q |-15h19p15----15-19-15h=19p15----15-19-19p15----15-17--------| |----------17-----------------17-------------17-------15-----| |------------------------------------------------------------| |------------------------------------------------------------| |------------------------------------------------------------| |------------------------------------------------------------| | | PM PM PM | E S S +S S E S S e E S S |------------------------------------------------------------| |------------------------------------------------------------| |--5--------------5-(5)-----------5-----x-----x--7-----7-x-x-| |--5--------------5-(5)-----------5-----x-----x--7-----7-x-x-| |--3-----------3--3-(3)--------3--3-----x-----x--5-----5-x-x-| |------------------------------------------------------------| E5 D5 E. S +E E +E E Q |-15------15-----(15)---15-----(15)---14----14--------| |-18b20---18b20==(18)---18b20==(18)---17b19-17b19-----| |-----------------------------------------------------| |-----------------------------------------------------| |-----------------------------------------------------| |-----------------------------------------------------| | | PM PM PM-| | E S S +S S E S S e E S S |-----------------------------------------------------| |-----------------------------------------------------| |--------------------------------------7-----7----x-x-| |--2-------2------(2)----2-------------7-----7----x-x-| |--2-------2------(2)----2-------------5-----5----x-x-| |--0----0--0------(0)-0--0-------0--0-----------------| C5 D5 E. S +E E +E E Q |-12------12-----(12)---12-----(12)---14----14--------| |-15b17---15b17==(15)---15b17==(15)---17b19-17b19-----| |-----------------------------------------------------| |-----------------------------------------------------| |-----------------------------------------------------| |-----------------------------------------------------| | | PM PM PM | E S S +S S E S S e E S S |-----------------------------------------------------| |-----------------------------------------------------| |--5-------5------(5)----5-------x--x--7-----7----x-x-| |--5-------5------(5)----5-------x--x--7-----7----x-x-| |--3----3--3------(3)-3--3-------x--x--5-----5----x-x-| |-----------------------------------------------------| E5 D5 ~~~~~ E. S +E E +E E Q |-15------15-----(15)---15-----(15)---17----17--------| |-18b20---18b20==(18)---18b20==(18)---20b22-20b22-----| |-----------------------------------------------------| |-----------------------------------------------------| |-----------------------------------------------------| |-----------------------------------------------------| | | PM PM PM-| | E S S +S S E S S e E S S |-----------------------------------------------------| |-----------------------------------------------------| |--------------------------------------7-----7----x-x-| |--2-------2------(2)----2-------------7-----7----x-x-| |--2-------2------(2)----2-------------5-----5----x-x-| |--0----0--0------(0)-0--0-------0--0-----------------| C5 D5 S S S S +S S S S S S S S S S S S |-19----19-19-------------19-------19-------19-------19-------19-------19-| |-22b24-------22b24==(22)----22b24----22b24----22b24----22b24----22b24----| |-------------------------------------------------------------------------| |-------------------------------------------------------------------------| |-------------------------------------------------------------------------| |-------------------------------------------------------------------------| | | PM PM PM | E S S +S S E S S e E S S |-------------------------------------------------------------------------| |-------------------------------------------------------------------------| |--5-----------5------(5)-----5--------x-----x--7--------7--------x-----x-| |--5-----------5------(5)-----5--------x-----x--7--------7--------x-----x-| |--3--------3--3------(3)--3--3--------x-----x--5--------5--------x-----x-| |-------------------------------------------------------------------------| E5 D5 S S S S S S S S +S S S S S S S S |-------19-------19-------19-19-------------19-------19-------19-19--------| |-22b24----22b24----22b24-------22b24==(22)----22b24----22b24-------22b24==| |--------------------------------------------------------------------------| |--------------------------------------------------------------------------| |--------------------------------------------------------------------------| |--------------------------------------------------------------------------| | | PM PM PM-| | E S S +S S E S S e E S S |--------------------------------------------------------------------------| |--------------------------------------------------------------------------| |-----------------------------------------------7--------7--------x--x-----| |--2--------------2-(2)-------2-----------------7--------7--------x--x-----| |--2--------------2-(2)-------2-----------------5--------5--------x--x-----| |--0--------0-----0-(0)----0--0----------0---0-----------------------------| C5 D5 +S S S S S S S S S S S S S S S S |------19-------19-------19-------19-------19-------19-------19-------19-| |-(22)----22b24----22b24----22b24----22b24----22b24----22b24----22b24----| |------------------------------------------------------------------------| |------------------------------------------------------------------------| |------------------------------------------------------------------------| |------------------------------------------------------------------------| | | PM PM PM | E S S +S S E S S e E S S |------------------------------------------------------------------------| |------------------------------------------------------------------------| |---5------------5-(5)-------5--------x-----x--7--------7--------x-----x-| |---5------------5-(5)-------5--------x-----x--7--------7--------x-----x-| |---3------3-----3-(3)----3--3--------x-----x--5--------5--------x-----x-| |------------------------------------------------------------------------| E5 D5 |-----5-----| S +S S S S T T T T T T T T T S S S S S S S |-22b24r(22)-19-20-22--20p19-19h20p19-20p19-20p19-17-15h17-15-14----14--| |----------------------------------------------------------------17-----| |-----------------------------------------------------------------------| |-----------------------------------------------------------------------| |-----------------------------------------------------------------------| |-----------------------------------------------------------------------| | | PM PM PM---| | E S S +S S E S S e E S S |-----------------------------------------------------------------------| |-----------------------------------------------------------------------| |-----------------------------------------------------7-----7-----x--x--| |--2-------------2-(2)--------2-----------------------7-----7-----x--x--| |--2-------------2-(2)--------2-----------------------5-----5-----x--x--| |--0----------0--0-(0)--0-----0--------------0-----0--------------------| C5 D5 S +S S S S S S S +S S T T S a E E |---------------------------------------------------------------| |-17b18r(17)-15----15--17b20---17b20r(17)-15-17p15----15h17-----| |---------------16---------------------------------16-----------| |---------------------------------------------------------------| |---------------------------------------------------------------| |---------------------------------------------------------------| | | PM PM PM | E S S +S S E S S e E S S |---------------------------------------------------------------| |---------------------------------------------------------------| |--5-------------5-(5)-------5---------x---x--7-----------7-x-x-| |--5-------------5-(5)-------5---------x---x--7-----------7-x-x-| |--3----------3--3-(3)--3----3---------x---x--5-----------5-x-x-| |---------------------------------------------------------------| E5 D5 S S S S S S S S S S S S S +S E |---------------------------------------------------| |-12---12---12----14-----14-14-12-12----------12----| |-12---12---12----14-----14-14-12-12b15==(12)-12----| |---------------------------------------------------| |---------------------------------------------------| |---------------------------------------------------| | | PM PM PM| | E S S +S S E S S e E S S |---------------------------------------------------| |---------------------------------------------------| |----------------------------7-----7-----------x-x--| |--2------2-(2)----2---------7-----7-----------x-x--| |--2------2-(2)----2---------5-----5-----------x-x--| |--0----0-0-(0)-0--0---0--0-------------------------| C5 D5 PM---| ~~~ S S S S S S S S S S S +S T S. S S |-------------------------------------------------------| |-------------------------------------------------------| |------------------------------12b14==(12)-12--------12-| |-------12-14-----14---14---14----------------14--14----| |-12-14-------------------------------------------------| |-------------------------------------------------------| | | PM PM PM | E S S +S S E S S e E S S |-------------------------------------------------------| |-------------------------------------------------------| |--5--------5-(5)----5----x--x--7-----------7------x--x-| |--5--------5-(5)----5----x--x--7-----------7------x--x-| |--3-----3--3-(3)--3-3----x--x--5-----------5------x--x-| |-------------------------------------------------------| E5 D5 |---3---| S S S S S S S S S S +E S +S a +E S |-------------------------------------------------------------------------------| |----12-15p12------12-----------------------------------------------------------| |-14------------14-12-----12-14-14pb16r(14)---14pb16r(14)-14pb16r(14)---14pb16r=| |----------------------14-------------------------------------------------------| |-------------------------------------------------------------------------------| |-------------------------------------------------------------------------------| | | PM PM PM----| | E S S +S S E S S e E S S |-------------------------------------------------------------------------------| |-------------------------------------------------------------------------------| |-------------------------------------------7----------7--------------x--x------| |--2----------2----(2)-----2----------------7----------7--------------x--x------| |--2----------2----(2)-----2----------------5----------5--------------x--x------| |--0-----0----0----(0)--0--0-----0-------0--------------------------------------| C5 D5 ~~~~~~~ +E S S S S S S S S S S +S. T S S |---------------------------------------------------| |----------------------15---------------------------| |-(14)-12----12--14s16----16s14-12------------------| |---------14-----------------------14-(14)-14-14-14-| |---------------------------------------------------| |---------------------------------------------------| | | PM PM PM | E S S +S S E S S e E S S |---------------------------------------------------| |---------------------------------------------------| |---5------5-(5)-----5-----x--x--7------7------x--x-| |---5------5-(5)-----5-----x--x--7------7------x--x-| |---3---3--3-(3)--3--3-----x--x--5------5------x--x-| |---------------------------------------------------| E5 D5 |---3---| |--------6--------| |-------6--------| |-------6--------| S S S S S S S S S S S S S S S S S S S S S S S |--------------------------------------------------------------------------------| |-------12---------------------12------------------12----------------12----------| |-12-14----15---14-12--14---15----15-14-12-14---15----15-14-12-14-15----15---14--| |--------------------------------------------------------------------------------| |--------------------------------------------------------------------------------| |--------------------------------------------------------------------------------| | | PM PM PM---| | E S S +S S E S S e E S S |--------------------------------------------------------------------------------| |--------------------------------------------------------------------------------| |---------------------------------------------------7--------7--------x----x-----| |--2----------2----(2)----------2-------------------7--------7--------x----x-----| |--2----------2----(2)----------2-------------------5--------5--------x----x-----| |--0-----0----0----(0)----0-----0--------0----0----------------------------------| C5 D5 ~~ |-----5-----| T T T T S T T T T T T T T T T T T T T T T T T T E S S |-----------------------------------------------------------------------------------| |-----------------------------12----------------------------------------------------| |-12h14p12----12----12-14h=15----15-14-12h14p12----12h14p12----12h14p12----12----12-| |----------14----14-----------------------------14----------14----------14----14----| |-----------------------------------------------------------------------------------| |-----------------------------------------------------------------------------------| | | PM PM PM | E S S +S S E S S e E S S |-----------------------------------------------------------------------------------| |-----------------------------------------------------------------------------------| |--5--------------5----(5)-----------5--------------x-----x-----7-----------7--x--x-| |--5--------------5----(5)-----------5--------------x-----x-----7-----------7--x--x-| |--3-----------3--3----(3)-----3-----3--------------x-----x-----5-----------5--x--x-| |-----------------------------------------------------------------------------------| E5 D5 |-------6--------| |--------6--------| S S S S S S S S S S S S T T S S S S S S S |------------------------------------------------------------------------| |-------12---------------------------------------------------------15----| |-14-15----15-14---12-14p=12------12----------------------14-15-16-------| |------------------------------14----14-12-14p12----12-14----------------| |------------------------------------------------14----------------------| |------------------------------------------------------------------------| | | PM PM PM---| | E S S +S S E S S e E S S |------------------------------------------------------------------------| |------------------------------------------------------------------------| |----------------------------------------------------7-----7-----x--x----| |--2-------------2----(2)----------2-----------------7-----7-----x--x----| |--2-------------2----(2)----------2-----------------5-----5-----x--x----| |--0--------0----0----(0)----0-----0--------0-----0----------------------| C5 D5 S S a S T T T T S S S S S S S +S +S S S |-----15-15h19-19p17-17p=15----15------------------------------------| |-/17-----------------------17----17-15----15-17b20==(17)r(17)-15-17-| |---------------------------------------17---------------------------| |--------------------------------------------------------------------| |--------------------------------------------------------------------| |--------------------------------------------------------------------| | | PM PM PM | E S S +S S E S S e E S S |--------------------------------------------------------------------| |--------------------------------------------------------------------| |---5-----------5----(5)--------5-----x--x--7----------7--------x--x-| |---5-----------5----(5)--------5-----x--x--7----------7--------x--x-| |---3--------3--3----(3)-----3--3-----x--x--5----------5--------x--x-| |--------------------------------------------------------------------| E5 D5 ~~ ~~ a Q S +S S S a Q Q |--------------------------------------------*| |-15h17-----17b20r(17)-15-17-15h17-----------*| |--------------------------------------------*| |--------------------------------------------*| |--------------------------------------------*| |--------------------------------------------*| | | PM PM PM| | E S S +S S E S S e E S S |--------------------------------------------*| |--------------------------------------------*| |------------------------------------7-7-x-x-*| |-----2---2-(2)---------2------------7-7-x-x-*| |-----2---2-(2)---------2------------5-5-x-x-*| |-----0-0-0-(0)-----0---0--------0-0---------*| Duration Legend --------------- W - whole; H - half; Q - quarter; E - 8th; S - 16th; T - 32nd; X - 64th; a - acciaccatura + - note tied to previous; . - note dotted; .. - note double dotted Uncapitalized letters represent notes that are staccato (1/2 duration) Irregular groupings are notated above the duration line Duration letters will always appear directly above the note/fret number it represents the duration for. Duration letters with no fret number below them represent rests. Multi- bar rests are notated in the form Wxn, where n is the number of bars to rest for. Low melody durations appear below the staff Tablature Legend ---------------- h - hammer-on p - pull-off b - bend pb - pre-bend r - bend release (if no number after the r, then release immediately) / - slide into or out of (from/to "nowhere") s - legato slide S - shift slide - natural harmonic [n] - artificial harmonic n(n) - tapped harmonic ~ - vibrato tr - trill T - tap TP - trem. picking PM - palm muting n/ - tremolo bar dip; n = amount to dip n - tremolo bar down n/ - tremolo bar up /n - tremolo bar inverted dip = - hold bend; also acts as connecting device for hammers/pulls <> - volume swell (louder/softer) x - on rhythm slash represents muted slash o - on rhythm slash represents single note slash Misc Legend ----------- | - bar || - double bar ||o - repeat start o|| - repeat end *| - double bar (ending) : - bar (freetime) $ - Segno & - Coda Tempo markers - = BPM(8/16=s8/s16), where s8 = swing 8ths, s16 = swing 16ths *************************************************************************************** * Generated using Power Tab Editor by Brad Larsen - http://powertab.guitarnetwork.org * ***************************************************************************************

    www.power-tabs.net
    найти лекарство
    список лекарств






    О сайтеАккордыХит-парадПоискУроки ФорумыИщу песню
    ПрограммыСвежачок-сПодпискаСтатьи
    Яндекс.Метрика