Аккорды Наутилус Помпилиус | Я Хочу Быть С Тобой гитара табулатуры уроки тексты песен Наутилус Помпилиус текст lyrics песня аккорды песни ноты нота электрогитара струна  
   А Б В Г Д Е Ж З И К Л М Н О П Р С Т У Ф Х Ч Ш Ы Э Ю Я       Разные песни
1-9 A B C D E F G H I J K L M N O P Q R S T U V W Y Z      Все исполнители

    



группа Наутилус Помпилиус, Аккорды песни Я Хочу Быть С Тобой

Группа: Наутилус Помпилиус - другие аккорды (113),   диски (9)
Аккорды песни: Я Хочу Быть С Тобой
Просмотров: 2911
Подобрал: FiNN




    
Am    G       C                 C       G       F     E
-0-0-|-0-------0-1-|-0-------0---3-3-|-3---0-0-------|-----0-----0-0-|
-----|-1-3-1-3-----|-1---1-----------|-1-------3-1-0-|-1-3---0-------|
-----|-2-----0-----|-0-0---0---0-----|---0-----------|-2-----1-------|
-----|-------------|-----------------|---------------|---------2-----|
-----|-0-----------|-3---------------|-3-------------|---------------|
-----|-------3-----|-----------------|---------3-----|-1-----0-------|
 Я пытался уйти от любви	 я брал     острую бритву и правил себя Я у-
  Am    G       C               C      G       F     F      
|-0-------0-1-|-00----0-------|-3--0-0-------|---0-------0-|
|-1-3-1-3-----|-1-1-----1-----|-1------3-1-0-|-1---1-1-3---|
|-2-----0-----|-0---0-----0---|-0------0-----|-2-----------|
|-------------|-------------2-|--------------|--3----------|
|-0-----------|-3-------------|-3------------|-------------|
|-------3-----|---------------|--------3-----|-1-----------|
крылся в подвале я резал        кожаные     ремни, стянувшие 
  E       E
---------0---------------0---|
-0---0-----0---------0-------|
-1-1---1-----1-----1---1-----|
---------------2---------2---|
---------2-------2-----------|
-0---------------------------|
слабую грудь
Припев:
  C      G       C                  C      G        F       G
|-0----0---0-1-|-0-------0--------|-3-----0-------|-----1---3-----0--|
|-1------3-----|-1---1-----1------|-1---1---3-1-0-|-1-----1-3--------|
|-0------0-----|-0-0---0-----0----|-0-0-----0-----|-2---------4------|
|--------------|---------------2--|---------------|---3---------5----|
|-3------------|-3----------------|-3-------------|------------------|
|--------3-----|------------------|---------3-----|-1-------3--------|
  я хочу быть с тобой              я хочу быть с тобой            я
  C      G       C                   C      G        F       F       E       E       
|-0-----0---0-1-|-0-------0--------|-3-----0-------|-------------0-|---------0-------
|
|-1---1---3-----|-1---1-----1------|-1---1---3-1-0-|-1---1-1-1-3---|-0---0-----0-----
|
|-0-0-----0-----|-0-0---0-----0----|-0-0-----0-----|-2-------------|-1-----1-----1---
|
|---------------|---------------2--|---------------|---3-----------|---2-----------2-
|
|-3-------------|-3----------------|-3-------------|---------------|---------2-------
|

Продолжаем грести бабос на ботах в Telegram.
Только в этот раз есть вариант автоматизировать это дело, привлекая рефералов. Вы можете заработать если »

|---------3-----|------------------|---------3-----|-1-------1-----|-0--------------- | так хочу быть с тобой я хочу быть с тобой и я буду с тобой E ---------0-| -----0-----| ---1---1---| -----------| -----------| -0---------| Проигрыш без слов: Am G F E Am |-0--0-0---------|-----1-------------|---------0-------| |--------3-1-0---|-1-----1-0---0---0-|-1---1-----1-----| |--------------2-|---2-------2---2---|---2---2-----2---| |----------------|-------------------|---------------2-| |-0--------------|-------------------|-0---------------| |--------3-------|-1-------0---------|-----------------| в комнате с белым потолком с правом на надежду Am G F E Am |-0--0-0---------|-----1-----------|-------| |--------3-1-0---|-1-----1-0---0---|-------| |--------------2-|---2-------2---2-|-2-----| |----------------|-----------------|-------| |-0--------------|-----------------|-0-----| |--------3-------|-1-------0-------|-------| в комнате с видом на огни с верою в любовь твое имя давно стало другим глаза навсегда потеряли свой цвет пьяный врач мне сказал, тебя больше нет пожарный выдал мне справку, что дом твой сгорел Припев. Проигрыш со словами. я ломал стекло как шоколад в руке я резал эти пальцы за то что они не могут прикоснуться к тебе я смотрел в эти лица и не мог им простить того что у них нет тебя и они могут жить Припев. Проигрыш со словами.








О сайтеАккордыХит-парадПоискУроки ФорумыИщу песню
ПрограммыСвежачок-сПодпискаСтатьи
Яндекс.Метрика