Аккорды Radiohead | I Froze Up гитара табулатуры уроки тексты песен Radiohead текст lyrics песня аккорды песни ноты нота электрогитара струна  
   А Б В Г Д Е Ж З И К Л М Н О П Р С Т У Ф Х Ч Ш Ы Э Ю Я       Разные песни
1-9 A B C D E F G H I J K L M N O P Q R S T U V W Y Z      Все исполнители in english

    



группа Radiohead, Аккорды песни I Froze Up

Продолжаем грести бабос на ботах в Telegram.
Только в этот раз есть вариант автоматизировать это дело, привлекая рефералов. Вы можете заработать если »

Группа: Radiohead - другие аккорды (189),   о группе (6 статей),   диски (9),   фотографии (134)
Аккорды песни: I Froze Up
Просмотров: 1393
Подобрал: Kyle Reid




    
Main part
e---------------------------------------------------------------
b---1---1---1---1---1------------0--1--1---------------------
g---0---0---2---0---0----3--3-------------------------------
d---2---3---3---2---2----1--1--------------------------------
a---3---3---3---3---3-----------------------------------------
E--------------------------------------------------------------
Second Part 
e----1---1-------------------------------------------------------
b----1---1-------1-----------------------------------------------
g----3---3-------2----strum the “Am” a few times---------------
d----3---3-------2-----------------------------------------------
a----1---1-------0------------------------------------------------

Продолжаем грести бабос на ботах в Telegram.
Только в этот раз есть вариант автоматизировать это дело, привлекая рефералов. Вы можете заработать если »

E----1---1-------------------------------------------------------- Third part e------5---5------6----------------------------------------------- b------5---5------6----------------------------------------------- g------7---7------8----------------------------------------------- d------7---7------8-----strum this like the “Am”------------------ a------5---5------6----------------------------------------------- E -----5---5------6------------------------------------------------

искать в аптеке
список лекарств

Дооснащение ебершпехер

дооснащение ебершпехер

altox.ru

Ремонт турбин в Твери

Квалифицированный ремонт топливной системы дизеля на дилерском оборудовании

turbina-2014.net








О сайтеАккордыХит-парадПоискУроки ФорумыИщу песню
ПрограммыСвежачок-сПодпискаСтатьи
Яндекс.Метрика