Табулатура Metallica | Fade To Black  (3) гитара табулатуры уроки тексты песен Metallica текст lyrics песня аккорды песни ноты нота электрогитара струна  
   А Б В Г Д Е Ж З И К Л М Н О П Р С Т У Ф Х Ч Ш Ы Э Ю Я       Разные песни
1-9 A B C D E F G H I J K L M N O P Q R S T U V W Y Z      Все исполнители in english

    



группа Metallica, Табулатура песни Fade To Black (3)

Работа в Европе для граждан РФ, Украины, СНГ

  • минимальная зарплата $500.
  • виза и контракт на полгода, возможно продление
  • проживание оплачивает работодатель
  • нужен только загранпаспорт
  • оформление 190 €
  • данное предложение - отличная возможность эмигрировать в Европу и закрепиться здесь навсегда.

  • Мы свяжемся с Вами по WhatsApp или Viber и ответим на любые вопросы.
    на нашем сайте можно почитать подробнее »

    Группа: Metallica - другие аккорды (225),   о группе (32 статей),   диски (11),   фотографии (49)
    Табулатура песни: Fade To Black (3)
    Просмотров: 6878
    Прислал: xAL (xal@akkords.ru)




        
    #----------------------------------PLEASE NOTE---------------------------------#
    #This file is the author's own work and represents their interpretation of the #
    #song. You may only use this file for private study, scholarship, or research. #
    #------------------------------------------------------------------------------##
                                      FADE TO BLACK
                                As recorded by Metallica
                        (From the 1984 Album RIDE THE LIGHTNING)
    Words by Hetfield
    Music by Hetfield, Ulrich, Burton, Hammett
    Transcribed by MK (Original Tab)
              B5                   A5                   G5
          7 9 9 x x x          5 7 7 x x x          3 5 5 x x x
    Gtr I (E A D G B E) - 'Acoustic'
    Gtr II (E A D G B E) - 'Distortion w/Chorus and/or Flanger'
    Gtr III (E A D G B E) - 'Distortion'
    Gtr IV (E A D G B E) - '2 Distortion Gtrs w/Chorus and/or Flanger'
     Intro/Solo
      Moderate Rock Q=116
     4/4
      Gtr I
      E E E E E E E E   E E E E E E E E   E E E E E E E E   E E E E E  E E  E
    |-----------------|-----------------|-----------------|--------------------|
    |-----------------|-----------------|-----------------|--------------------|
    |-----0-----------|-----0-----------|-----0-----------|-----2--------------|
    |---4---4---4---4-|---4---4---4---4-|---4---4---4---4-|---2---2----2----2--|
    |-2-------2---5---|-0-------0---5---|-2-------2---5---|-4-------4----0-----|
    |-----------------|-----------------|-----------------|--------------------|
    |
    | Gtr II
    | W                 W                 W                 H       E  E E  E
    |-----------------|-----------------|-----------------|--------------------|
    |-----------------|-----------------|-----------------|-----------------7--|
    |-----------------|-----------------|-----------------|--------------7-(7)-|
    |-----------------|-----------------|-----------------|-----------/9-------|
    |-----------------|-----------------|-----------------|--------------------|
    |-----------------|-----------------|-----------------|--------------------|
    
      E  E E E    E  E E E       E E    E   E  E E E E
    |-------------------------|------------------------|
    |-------------------------|------------------------|
    |------0------------------|---------0--------------|
    |----4---4-------4---4----|----4--------4----4---4-|
    |-2-----------2----5------|--0-------------0---5---|
    |-------------------------|------------------------|
    |
    |                            |---3----|
    | Q.     S S  Q.     S  S    Q    Q   Q    H
    |-------------------------|------------------------|
    |--------7-8s10------8-10-|-12---10---8---10-------|
    |-------------------------|------------------------|
    |-9-----------------------|------------------------|
    |-------------------------|------------------------|
    |-------------------------|------------------------|
    
        E   E    E E E E E E   E   E    E E E E   E   E
    |------------------------|----------------------------|
    |------------------------|----------------------------|
    |------------0-----------|----------2-----------------|
    |-------4------4---4---4-|-----2------2---2-------2---|
    |---2------------2---5---|-4------------4-----0-------|
    |------------------------|----------------------------|
    |
    |                                       |---3---|
    |  +E   S  S E E E E E E   S E   E.   E Q   Q   Q
    |------------------------|----------------------------|
    |-(10)-12p10p8s7h8p7---7-|-7h8---7------7-------------|
    |--------------------9---|------------9-----9---7-----|
    |------------------------|----------------------------|
    |------------------------|----------------------------|
    |------------------------|----------------------------|
    
      E E E E E E  E   E   E E E E  E  E E E
    |--------------------|-------------------|
    |--------------------|-------------------|
    |-----0--------------|-----0-------------|
    |---4---4---4------4-|---4---4-----4---4-|
    |-2-------2----5-----|-0--------0----5---|
    |--------------------|-------------------|
    |
    | Q   H       +E   E   H       +E  E E E
    |--------------------|-------------------|
    |--------------------|-----------------8-|
    |------------------7s|=6-------(6)-7p6---|
    |-7---9-------(9)---|-------------------|
    |--------------------|-------------------|
    |--------------------|-------------------|
    
      E   E E E E E E E    E  E E E E E E  E
    |-------------------|-----------------------|
    |-------------------|-----------------------|
    |-------0-----------|-------2---------------|
    |-----4---4---4---4-|-----2---2---2----2----|
    |-2---------2---5---|--4--------4---0-------|
    |-------------------|-----------------------|
    |
    |                      ~~~
    | H..             E    H.           E  S  S
    |-------------------|--------------------14-|
    |-7---------------8s|=10--------------15----|
    |-------------------|-----------------------|
    |-------------------|-----------------------|
    |-------------------|-----------------------|
    |-------------------|-----------------------|
    
       E     E     E     E     E     E     E    E     E  E E  E     E  E E  E
    |---------------------------------------------|------------------------------|
    |---------------------------------------------|------------------------------|
    |--------------0------------------------------|--------0---------------------|
    |--------4-----------4-----------4----------4-|------4----4--------4----4----|
    |--2-----------------------2-----------5------|---0-------------0----5-------|
    |---------------------------------------------|------------------------------|
    |
    |                                                 ~~~~          ~~~
    |  S  S  S  S  S  S  S  S  S  S  S  S  Q         +Q.      S  S  Q.      S  S
    |-19-14-------15p14---------------------------|------------------------------|
    |-------15----------15----17-15-14------------|------------------------------|
    |----------16----------14----------16-14b16r==|=(14)-----14h16---------------|
    |---------------------------------------------|----------------14------14h16-|
    |---------------------------------------------|------------------------------|
    |---------------------------------------------|------------------------------|
    
       E  E  E  E  E        E  E  E    E  E  E  E  E E  E  E
    |-------------------------------|-------------------------|
    |-------------------------------|-------------------------|
    |--------0----------------------|--------2----------------|
    |-----4-----4-----------4-----4-|-----2-----2----2-----2--|
    |--2-----------2-----------5----|--4-----------4----0-----|
    |-------------------------------|-------------------------|
    |
    |              |--3--|
    |  E  E  E  E  S  S  S  E  E  E    E  E  E  Q.      E  E
    |-------------------------------|----19-17-15------15-17--|
    |-------14-15-14h15p14----14h15-|-14----------------------|
    |-14-16----------------16-------|-------------------------|
    |-------------------------------|-------------------------|
    |-------------------------------|-------------------------|
    |-------------------------------|-------------------------|
    
       E E  E  E  E E  E  E    E E  E  E  E E  E  E
    |-----------------------|-----------------------|
    |-----------------------|-----------------------|
    |-------0---------------|-------0---------------|
    |----4-----4----4-----4-|----4-----4----4-----4-|
    |--2----------2----5----|--0----------0----5----|
    |-----------------------|-----------------------|
    |
    |          ~~~
    |  Q    E  Q.      E  E    Q    E  Q.      E  E
    |-14--------------14-15-|-14--------------14-15-|
    |------15---------------|------15---------------|
    |---------16------------|---------14------------|
    |-----------------------|-----------------------|
    |-----------------------|-----------------------|
    |-----------------------|-----------------------|
    
       E E  E  E  E E  E E    E  E E E E E E E
    |----------------------|--------------------|
    |----------------------|--------------------|
    |-------0--------------|-------2------------|
    |----4-----4----4----4-|-----2---2---2---2--|
    |--2----------2----5---|--4--------4---0----|
    |----------------------|--------------------|
    |
    |  Q    E  Q.      Q      H.           Q
    |-14------17------15---|-14-----------------|
    |------15--------------|--------------------|
    |----------------------|--------------------|
    |----------------------|--------------------|
    |----------------------|--------------------|
    |----------------------|--------------------|
    
       E  E  E  E  E  E  E  E    E  E  E  E  E  E  E        E
    |-------------------------|-------------------------------||
    |-------------------------|--------------------0--------3-||
    |-------------------------|--------1--------1-------------||
    |--------0-----------2----|-----2--------2----------------||
    |-----3-----------2-----2-|--2--------2-------------------||
    |--1--------1--4----------|-------------------------------||
    |
    |                                              |--3--|
    |  E  E  E  E  E  E  E  E    E  E  E  E  E  E  S  S  S  E
    |-------------------------|----------12-13-15-13h15p13----||
    |-------------------------|-12-13-15-------------------15-||
    |-------------------12-14-|-------------------------------||
    |----------12-14-15-------|-------------------------------||
    |-12-14-15----------------|-------------------------------||
    |-------------------------|-------------------------------||
    
     Pre-Verse
       E E E E E E S S E    Q   E E E E S S E   +Q   E E E E E E   H      Q  a Q
    |----------0---------|----------0---------|----------3---3-3-|----------------|
    |-^0h1-------------1-|-(1)--1-----------0-|-(0)--3-----------|--------0--1s3--|
    |-^2---2-------0h2---|--0-----------0h2---|--0-----------2-0-|-0------0--2s4--|
    |-^2-----2---2-------|--2-----2---2-------|--------0---0-----|----2-----------|
    |-^0-----------------|--3-----------------|------------------|------2---------|
    |--------------------|--------------------|--3---------------|-0--------------|
    |  H.          Q        H.          Q        W                 Q  E E H
    |
    |  W                    W                    W                 W
    |-17-----------------|--------------------|------------------|----------------|
    |--------------------|--------------------|------------------|----------------|
    |--------------------|--------------------|------------------|----------------|
    |--------------------|--------------------|------------------|----------------|
    |--------------------|--------------------|------------------|----------------|
    |--------------------|--------------------|------------------|----------------|
    
       E E E E E E S S E    Q   E E E E S S E
    |----------0---------|----------0---------|
    |-^0h1-------------1-|-(1)--1-----------0-|
    |-^2---2-------0h2---|--0-----------0h2---|
    |-^2-----2---2-------|--2-----2---2-------|
    |-^0-----------------|--3-----------------|
    |--------------------|--------------------|
    |  H.          Q        H.          Q
    |
    |  W                    W
    |--------------------|--------------------|
    |--------------------|--------------------|
    |--------------------|--------------------|
    |--------------------|--------------------|
    |--------------------|--------------------|
    |--------------------|--------------------|
    
                   |-3-|
      +Q   E E E E S S S E   H       Q  a Q
    |----------3-----------|-0----------------|
    |-(0)--3---------------|-0-------0--1s3---|
    |--0-----------0h2p0-0-|-0-------0--2s4---|
    |--------0---0---------|-2---2------------|
    |----------------------|-------2----------|
    |--3-------------------|---0--------------|
    |  W                     E E E E H
    |
    |  W                     W
    |----------------------|------------------|
    |----------------------|------------------|
    |----------------------|------------------|
    |----------------------|------------------|
    |----------------------|------------------|
    |----------------------|------------------|
    
       E E E E E E   S S E    Q   E E E E S     S E
    |----------0-----------|----------0-----------------|
    |-^0h1---------------1-|-(1)--1---------------0-----|
    |-^2---2---------0h2---|--0-----------0h====2-------|
    |-^2-----2---2---------|--2-----2---2---------------|
    |-^0-------------------|--3-------------------------|
    |----------------------|----------------------------|
    |  H.            Q        H.          Q
    |
    |                                     T       T
    |  H.          a Q        H.          E       E
    |----------------------|----------------------------|
    |--------------0h1-----|----------------------------|
    |--2-------------------|--0-------------------4(16)-|
    |----------------------|--------------5(17)---------|
    |----------------------|----------------------------|
    |----------------------|----------------------------|
    
      +Q      E E E E  E E    H      Q  a Q
    |-------------3----3-3-|-----------------|
    |-(0)-----3------------|---------0--1s3--|
    |--0---------------2-0-|--0------0--2s4--|
    |-----------0---0------|-----2-----------|
    |----------------------|-------2---------|
    |--3-------------------|--0--------------|
    |  W                      Q  E E H
    |
    |  T
    |  H          Q    q      W
    |-----------------12---|-10--------------|
    |--3(15)---------------|--8--------------|
    |----------------------|--9--------------|
    |----------------------|-----------------|
    |----------------------|-----------------|
    |----------------------|-----------------|
    
       E  E E E E E S S E    Q   E E E E S     S E
    |-----------0---------|----------0-----------------|
    |-^0h=1-------------1-|-(1)--1---------------0-----|
    |-^2----2-------0h2---|--0-----------0h====2-------|
    |-^2------2---2-------|--2-----2---2---------------|
    |-^0------------------|--3-------------------------|
    |---------------------|----------------------------|
    |  H.           Q        H.          Q
    |
    |                                    T       T
    |  H..              E    H.          E       E
    |---------------------|----------------------------|
    |-------------------1-|----------------------------|
    |--2------------------|--0-------------------4(16)-|
    |---------------------|--------------5(17)---------|
    |---------------------|----------------------------|
    |---------------------|----------------------------|
    
      +Q      E E E E E E       H           Q  a Q
    |-------------3-----------|-0--------------------||
    |-(0)-----3-------3-------|-0-----------0--1s3---||
    |--0----------------2-----|-0-----------0--2s4---||
    |-----------0---0---------|-2-------2------------||
    |-------------------------|-----------2----------||
    |--3----------------------|-------0--------------||
    |  W                        E     E E E H
    |
    |  T                T       T
    |  H..              E       W
    |-------------------------|-3(15)----------------||
    |--3(15)------------5(17)-|----------------------||
    |-------------------------|----------------------||
    |-------------------------|----------------------||
    |-------------------------|----------------------||
    |-------------------------|----------------------||
    
       Verse
        $
        Gtr I
         E E E E E E S S E    Q   E E E E S S E
    ||-----------0---------|----------0---------|
    ||o-^0h1-------------1-|-(1)--1-----------0-|
    ||--^2---2-------0h2---|--0-----------0h2---|
    ||--^2-----2---2-------|--2-----2---2-------|
    ||o-^0-----------------|--3-----------------|
    ||---------------------|--------------------|
         H.          Q        H.          Q
    
      +Q   E E E E E E   H      Q  a Q
    |----------3---3-3-|----------------|
    |-(0)--3-----------|--------0--1s3--|
    |--0-----------2-0-|-0------0--2s4--|
    |--------0---0-----|----2-----------|
    |------------------|------2---------|
    |--3---------------|-0--------------|
       W                 Q  E E H
    
       E E E E E E S S E    Q   E E E E S S E
    |----------0---------|----------0---------|
    |-^0h1-------------1-|-(1)--1-----------0-|
    |-^2---2-------0h2---|--0-----------0h2---|
    |-^2-----2---2-------|--2-----2---2-------|
    |-^0-----------------|--3-----------------|
    |--------------------|--------------------|
       H.          Q        H.          Q
    
                        1.
      +Q   E E E E E E   H       Q  a Q
    |----------3-------|-0-----------------||
    |-(0)--3-------3---|-0-------0--1s3---o||
    |--0-------------2-|-0-------0--2s4----||
    |--------0---0-----|-2---2-------------||
    |------------------|-------2----------o||
    |--3---------------|---0---------------||
       W                 E E E E H
    
                         Chorus (No Vocals)
      2.
      W                   W                  W                  W
    |-----------------||-------------------|------------------|--------------|
    |-----------------||o------------------|------------------|--------------|
    |-0---------------||-------------------|------------------|--------------|
    |-----------------||-------------------|------------------|--------------|
    |-----------------||o------------------|------------------|--------------|
    |-3---------------||-------------------|------------------|--------------|
    |
    | Gtr III
    |   PM----------|              PM----|            PM----|
    | E E E E E E E E     Q.   E E S S E E   Q.   E E S S E E   Q.   E q  q
    |-----------------||-------------------|------------------|--------------|
    |-5-5-5-5-5-5-5-5-||o-0----2-2---------|-5----5-5---------|-2----2-2-----|
    |-5-5-5-5-5-5-5-5-||--2----2-2---------|-5----5-5---------|-2----2-2--7--|
    |-2-2-2-2-2-2-2-2-||--2----2-2---------|-5----5-5---------|-2----2-2--7--|
    |-----------------||o-0----0-0-------5-|-3----3-3-------5-|-0----0-0--5--|
    |-0-0-0-0-0-0-0-0-||-----------0-0-3---|----------0-0-3---|--------------|
    
      Gtr III
               PM----|            PM----|
      Q.   E E S S E E   Q.   E E S S E E
    |------------------|------------------|
    |-9----9-9---------|-0----2-2---------|
    |-9----9-9---------|-2----2-2---------|
    |-9----9-9-----5-5-|-2----2-2---------|
    |-7----7-7-----3-2-|-0----0-0-------5-|
    |----------0-0-----|----------0-0-3---|
    
                              To Coda
               PM----|             PM|
      Q.   E E S S E E   Q.   E Q  E E   W
    |------------------|---------------|-------||
    |-5----5-5---------|-2----2-2------|------o||
    |-5----5-5---------|-2----2-2------|-1-----||
    |-5----5-5---------|-2----2-2------|-2-----||
    |-3----3-3-------5-|-0----0-0--5-4-|-2----o||
    |----------0-0-3---|-----------3-2-|-0-----||
    
     Interlude/Solo
      Gtr I
       E E E E E E  S S  E    Q   E  E     E E    S S    E
    |----------0-----------|---------------0---------------|
    |-^0h1---------------1-|-(1)--1----------------------0-|
    |-^2---2--------0h2----|--0-------------------0h2------|
    |-^2-----2---2---------|--2------2-------2-------------|
    |-^0-------------------|--3----------------------------|
    |----------------------|-------------------------------|
    |  H.           Q         H.                  Q
    |
    | Gtr IV
    |  ~~~                    ~~~
    |                                      |-----3-----|
    |  H.           E    E    Q.     E  a  Q    Q      Q
    |----------------------|-------------------------------|
    |-10-----------10---12-|-13-----13-13s15---13-----12---|
    |--9------------9---11-|-12-----12-12s14---12-----11---|
    |----------------------|-------------------------------|
    |----------------------|-------------------------------|
    |----------------------|-------------------------------|
    
      +Q   E E E E  E  E   H      Q    a  Q
    |----------3----3--3-|---------------------|
    |-(0)--3-------------|--------0----1s=3----|
    |--0------------2--0-|-0------0----2s=4----|
    |--------0---0-------|----2----------------|
    |--------------------|------2--------------|
    |--3-----------------|-0-------------------|
    |  W                   Q  E E H
    |
    |  ~~~                 ~
    |  H.           E  E   H      E  E    E  E
    |--------------------|---------------------|
    |--------------------|---------------------|
    |-12-----------12s14-|-9------9s11---11s12-|
    |-12-----------12s14-|-9------9s11---11s12-|
    |--------------------|---------------------|
    |--------------------|---------------------|
    
          E E E E E E  S S  E    Q   E E  E    E      S S    E
    |-------------0-----------|-----------0--------------------|
    |----^0h1---------------1-|-(1)--1-----------------------0-|
    |----^2---2--------0h2----|--0--------------------0h2------|
    |----^2-----2---2---------|--2-----2-------2---------------|
    |----^0-------------------|--3-----------------------------|
    |-------------------------|--------------------------------|
    |     H.           Q         H.                   Q
    |
    |     ~~~                    ~~~
    |                                     |-------3--------|
    |  a  H.           E    E    H        Q       +Q       Q
    |-------------------------|--------------------------------|
    |----------------------12-|-13-------15b17r==(15)-----13---|
    |-12s14-----------14---11-|-12-------14b16r==(14)-----12---|
    |-12s14-----------14------|--------------------------------|
    |-------------------------|--------------------------------|
    |-------------------------|--------------------------------|
    
                                                 D.S. al Coda
                              |--3---|
      +Q      E    E  E    E  S    S S E     H        Q  a Q
    |-----------------3------------------|---0-----------------||
    |-(0)-----3--------------------------|---0--------0--1s3---||
    |--0----------------------0h===2p0-0-|---0--------0--2s4---||
    |--------------0-------0-------------|---2----2------------||
    |------------------------------------|----------2----------||
    |--3---------------------------------|------0--------------||
    |  W                                     E  E E E H
    |
    |                                        ~~~~
    |  Q      Q       Q       Q             +W
    |------------------------------------|---------------------||
    |-15b17--15b17---15b17---15b17r======|=(15)----------------||
    |-14b16--14b16---14b16---14b16r======|=(14)----------------||
    |------------------------------------|---------------------||
    |------------------------------------|---------------------||
    |------------------------------------|---------------------||
    
       Bridge
        Faster Q=144
        $$
        &
        Gtr III
        E E E E H      E E E E  E  Q.
    ||---------------|------------------|
    ||o--------------|------------------|
    ||--7s9---9-9----|-7s9---9S12-11----|
    ||--7s9---9-9----|-7s9---9S12-11----|
    ||o-5s7---7-7----|-5s7---7S10--9----|
    ||---------------|------------------|
    
                   PM----------------------|
      E E E E Q.   S S   E S S E S S E S S E E
    |------------------|------------------------|
    |------------------|------------------------|
    |---7---7-7--------|---------------------4--|
    |---7---7-7----9-9-|-9-7-7-7-5-5-5-4-4-4----|
    |---5---5-5--------|------------------------|
    |------------------|------------------------|
    
                                                                   To Dbl. Coda
                                                     PM----------------------|
      E E E E H      E E E E  E  Q.     E E E E Q.   S S   E S S E S S E S S E E
    |--------------|------------------|------------------|------------------------||
    |--------------|------------------|------------------|-----------------------o||
    |-7s9---9-9----|-7s9---9S12-11----|---7---7-7--------|------------------------||
    |-7s9---9-9----|-7s9---9S12-11----|---7---7-7----9-9-|-9-7-7-7-5-5-5-4-4-4-5--||
    |-5s7---7-7----|-5s7---7S10--9----|---5---5-5--------|-----------------------o||
    |--------------|------------------|------------------|------------------------||
    
      Gtr III
      E E E E H      E E E E  E  Q.
    |--------------|------------------|
    |--------------|------------------|
    |-7s9---9-9----|-7s9---9S12-11----|
    |-7s9---9-9----|-7s9---9S12-11----|
    |-5s7---7-7----|-5s7---7S10--9----|
    |--------------|------------------|
    |
    | Gtr IV
    |                            ~~~
    | E E E E H      E E E E  E  Q.
    |--------------|------------------|
    |-7-8---8-8----|-7-8---8-12-10----|
    |--------------|------------------|
    |-7-9---9-9----|-7-9---9-12-11----|
    |--------------|------------------|
    |--------------|------------------|
    
                    PM---------------------------|
      E E E E Q.    S  S    E  S  S  E S S E S S E E
    |--------------------|---------------------------|
    |--------------------|---------------------------|
    |---7---7-7----------|-------------------------4-|
    |---7---7-7-----9--9-|--9--7--7--7-5-5-5-4-4-4---|
    |---5---5-5----------|---------------------------|
    |--------------------|---------------------------|
    |
    |         ~~    PM---------------------------|
    | E E E E Q.    S  S    E  S  S  E S S E S S E E
    |--------------------|---------------------------|
    |---7---7------12-12-|-12-10-10-10-8-8-8-7-7-7---|
    |---------7----------|---------------------------|
    |---7---7-7----12-12-|-12-11-11-11-9-9-9-7-7-7-9-|
    |--------------------|---------------------------|
    |--------------------|---------------------------|
    
      E E E E H      E E E E  E  Q.
    |--------------|------------------|
    |--------------|------------------|
    |-7s9---9-9----|-7s9---9S12-11----|
    |-7s9---9-9----|-7s9---9S12-11----|
    |-5s7---7-7----|-5s7---7S10--9----|
    |--------------|------------------|
    |
    |                            ~~~
    | E E E E H      E E E E  E  Q.
    |--------------|------------------|
    |-7-8---8-8----|-7-8---8-12-10----|
    |--------------|------------------|
    |-7-9---9-9----|-7-9---9-12-11----|
    |--------------|------------------|
    |--------------|------------------|
    
                             D.S.S. al Dbl. Coda
                      PM----------------------|
      E  E E  E  Q.   S S   E S S E S S E S S E E
    |---------------------|-----------------------||
    |---------------------|-----------------------||
    |----7----7--7--------|-----------------------||
    |----7----7--7----9-9-|-9-7-7-7-5-5-5-4-4-4-5-||
    |----5----5--5--------|-----------------------||
    |---------------------|-----------------------||
    |
    |            ~~~  PM----------------------|
    | E  E E  E  Q.   S S   E S S E S S E S S E E
    |---------------------|-----------------------||
    |-----------------7-7-|-7-5-5-5-3-3-3-2-2-2-3-||
    |---11---11-11----7-7-|-7-6-6-6-4-4-4-2-2-2-4-||
    |----7----7--7--------|-----------------------||
    |----9----9--9--------|-----------------------||
    |---------------------|-----------------------||
    
      &&
      Gtr III
      PM----|          PM----|            PM----|      PM----------------------|
      E E E E Q.   E   E E E E  E  Q.     E E E E Q.   S S   E S S E S S E S S E E
    |----------------|------------------|------------------|-----------------------|
    |----------------|------------------|---------7--------|-----------------------|
    |---------9----9-|---------12-11----|---------7--------|---------------------4-|
    |---------9----9-|---------12-11----|---------7----9-9-|-9-7-7-7-5-5-5-4-4-4---|
    |---------7----7-|---------10--9----|---------5--------|-----------------------|
    |-0-0-0-0--------|-0-0-0-0----------|-0-0-0-0----------|-----------------------|
    
      PM----|          PM----|
      E E E E Q.   E   E E E E  E  Q.
    |----------------|------------------|
    |----------------|------------------|
    |---------9----9-|---------12-11----|
    |---------9----9-|---------12-11----|
    |---------7----7-|---------10--9----|
    |-0-0-0-0--------|-0-0-0-0----------|
    
      PM----|      PM----------------------|
      E E E E Q.   S S   E S S E S S E S S E E
    |------------------|-----------------------||
    |---------7--------|-----------------------||
    |---------7--------|-----------------------||
    |---------7----9-9-|-9-7-7-7-5-5-5-4-4-4-5-||
    |---------5--------|-----------------------||
    |-0-0-0-0----------|-----------------------||
    
     Out-Solo
      B5                                 A5
      Gtr III
      Q.    Q.   Q    +H.          Q     Q.    Q.   Q    +H.          Q
      |     |    |     |                 |     |    |     |
      /     /    /     /                 /     /    /     /
      Gtr II
                                   PM|                                PM|
      Q.    Q.   Q    +E  Q.   E E E E   Q.    Q.   Q    +E  Q.   E E E E
    |---------------|------------------|---------------|-------------------|
    |---------------|------------------|---------------|-------------------|
    |---------------|------------------|---------------|-------------------|
    |------/4----5--|-(5)-4----2-------|------/4----5--|-(5)-4----2--------|
    |-5-------------|------------5-4---|-4-------------|------------5-4----|
    |---------------|----------------5-|---------------|----------------5--|
    |
    | Gtr IV
    |                              PM|                                PM|
    | Q.    Q.   Q    +E  Q.   E E E E   Q.    Q.   Q    +E  Q.   E E E E
    |---------------|------------------|---------------|-------------------|
    |---------------|------------------|---------------|-------------------|
    |---------------|------------------|---------------|-------------------|
    |------/4----2--|-(2)--------------|------/4----2--|-(2)---------------|
    |-2-------------|-----5----4-2-----|---------------|-----5----4-2------|
    |---------------|--------------5-2-|-5-------------|--------------5-2--|
    
      G5                                 A5
      Q.    Q.   Q    +H.          Q     Q.    Q.   Q     E  Q.   Q   Q
      |     |    |     |                 |     |    |     |  |    |   |
      /     /    /     /                 /     /    /     /  /    /   /
                                   PM|                                PM|
      Q.    Q.   Q    +E  Q.   E E E E   Q.    Q.   Q    +E  Q.   E E E E
    |---------------|------------------|---------------|-------------------||
    |---------------|------------------|---------------|-------------------||
    |---------------|------------------|---------------|-------------------||
    |------/4----5--|-(5)-4----2-------|------/4----5--|-(5)-7----5-4-2-4--||
    |-2-------------|------------5-4---|-5-------------|-------------------||
    |---------------|----------------5-|---------------|-------------------||
    |
    |                              PM|                                PM|
    | Q.    Q.   Q    +E  Q.   E E E E   Q.    Q.   Q    +E  Q.   E E E E
    |---------------|------------------|---------------|-------------------||
    |---------------|------------------|---------------|-------------------||
    |---------------|------------------|---------------|-------------------||
    |------/4----2--|-(2)--------------|------/4----2--|-(2)---------------||
    |---------------|-----5----4-2-----|---------------|-----5----4-2------||
    |-3-------------|--------------5-2-|-5-------------|--------------5-2--||
    
      B5
      Q.    Q.   Q    +H.           Q
      |     |    |     |
      /     /    /     /
      Gtr IV
                                    PM|
      Q.    Q.   Q    +E  Q.    E E E E
    |---------------|-------------------|
    |---------------|-------------------|
    |------------0--|-(0)---------------|
    |-0----/4----2--|-(2)-4-----2-0-----|
    |-2-------------|-----5-----4-2-4-0-|
    |---------------|---------------5-2-|
    |
    | Gtr II
    | W                H        Q   E E
    |---------------|-------------------|
    |---------------|-------------------|
    |---------------|-----------------7-|
    |---------------|----------/9---9---|
    |---------------|-------------------|
    |---------------|-------------------|
    
      A5
      Q.      Q.     Q       +H.                 Q
      |       |      |        |
      /       /      /        /
                                                 PM|
      Q.      Q.     Q       +E  Q.          E E E E
    |----------------------|-------------------------|
    |----------------------|-------------------------|
    |----------------0-----|-(0)---------------------|
    |--------/4------2-----|-(2)-4-----------2-0-----|
    |-4--------------------|-----5-----------4-2-4-0-|
    |-5--------------------|---------------------5-2-|
    |
    | Q.      Q.     Q       +E  Q     +S  S E E E E
    |----------------------|-------------------------|
    |----------------------|-----------------------7-|
    |-9b11----9b11---9b11--|-(9)-9b11r=(9)p7-9-9-9---|
    |----------------------|-------------------------|
    |----------------------|-------------------------|
    |----------------------|-------------------------|
    
      G5
        Q.         Q.      Q       +H.              Q
        |          |       |        |
        /          /       /        /
                                                    PM|
        Q.         Q.      Q       +E  Q.      E  E E  E
    |--------------------------|-------------------------|
    |--------------------------|-------------------------|
    |----------------------0---|---(0)-------------------|
    |-------------/4-------2---|---(2)-4-------2--0------|
    |---2----------------------|-------5-------4--2-4--0-|
    |---3----------------------|--------------------5--2-|
    |
    |                               |---3---|
    | a Q   a a E  E  a Q  E E   a  Q     Q Q  E  E E  E
    |--------------------------|-------------------------|
    |-7h8---7h8p7-----7h8--7---|-7--8-----7---10-10-8-10-|
    |--------------7---------7-|------------7------------|
    |--------------------------|-------------------------|
    |--------------------------|-------------------------|
    |--------------------------|-------------------------|
    
      A5
        Q.       Q.        Q      E  Q.     Q     Q
        |        |         |      |  |      |     |
        /        /         /      /  /      /     /
                                                  PM--|
        Q.       Q.        Q     +E  Q.     E E   E   E
    
    Узнай ВСЕ о своем друге в ВК или FB
    |--------------------------|------------------------| |--------------------------|------------------------| |----------------------0---|-(0)--------------------| |-----------/4---------2---|-(2)-4------5-4---2---4-| |---4----------------------|-----5------4-2---------| |---5----------------------|------------------5---2-| | | |--3--| |--3--| |---3---| |---3---| | Q Q Q a Q Q Q Q Q Q Q Q Q |--------------------------|------------------------| |-/12--10-8-----8h10-8---7-|--8-----7---7-----------| |--------------------------|----------9-----9---7---| |--------------------------|------------------------| |--------------------------|------------------------| |--------------------------|------------------------| B5 Q. Q. Q +H. Q | | | | / / / / PM| Q. Q. Q +E Q. E E E E |------------------|-------------------------| |------------------|-------------------------| |--------------0---|-(0)---------------------| |-0-----/4-----2---|-(2)----4--------2-0-----| |-2----------------|--------5--------4-2-4-0-| |------------------|---------------------5-2-| | | Q E Q E E E E +S S E E E E E E |------------------|-------------------------| |------------------|-------------------------| |--------------7-9-|--9b11r(9)p7-9-7-7---7-9-| |-7---9--9---9-----|-------------------9-----| |------------------|-------------------------| |------------------|-------------------------| A5 Q. Q. Q | | | / / / Q. Q. Q |---------------------------------------------| |---------------------------------------------| |----------------------------------0----------| |-------------/4-------------------2----------| |-4-------------------------------------------| |-5-------------------------------------------| | | E. S S S S S S S S S S S S S |------7------------7-----------7-------------| |--------10p7---------10p7--------10p7------7-| |-9b11---------9b11--------9b11--------9b11---| |---------------------------------------------| |---------------------------------------------| |---------------------------------------------| +H. Q | / PM--| +E Q. E E E E |-------------------------------------------------| |-------------------------------------------------| |-(0)---------------------------------------------| |-(2)--4-------------------2---0------------------| |------5-------------------4---2-------4---0------| |--------------------------------------5---2------| | | S S S S S S S S S S S S S S S S |-----------------------7-----------7-----------7-| |-10p7------7-10p7--------10p7--------10p7--------| |------9b11--------9b11--------9b11--------9b11---| |-------------------------------------------------| |-------------------------------------------------| |-------------------------------------------------| G5 Q. Q. Q | | | / / / Q. Q. Q |-----------------------------------------| |-----------------------------------------| |--------------------------------0--------| |----------------/4--------------2--------| |--2--------------------------------------| |--3--------------------------------------| | | S S S S S S S S S S S S S S S S |-10p7----7-10p7-10p7----7-10p7-10p7----7-| |------10-------------10-------------10---| |-----------------------------------------| |-----------------------------------------| |-----------------------------------------| |-----------------------------------------| +H. Q | / PM--| +E Q. E E E E |-----------------------------------------| |-----------------------------------------| |-(0)-------------------------------------| |-(2)--4---------------2----0-------------| |------5---------------4----2----4----0---| |--------------------------------5----2---| | | S S S S S S S S S S S S S S S S |-10p7----7-10p7-10p7----7-10p7-10p7----7-| |------7--------------10-------------10---| |-----------------------------------------| |-----------------------------------------| |-----------------------------------------| |-----------------------------------------| A5 Q. Q. Q E Q. Q Q | | | | | | | / / / / / / / PM--| Q. Q. Q +E Q. E E E E |--------------------------------|------------------------------------| |--------------------------------|------------------------------------| |-------------------------0------|-(0)--------------------------------| |--------------/4---------2------|-(2)----4-----------5---4---2---4---| |--4-----------------------------|--------5-----------4---2-----------| |--5-----------------------------|----------------------------5---2---| | | |-3-| |-3--| |---3----| |-3-| |--3--| |--3--| | Q Q E E E E E E E E E E E E E E E E E E |-10b12--10b12-----10-8-7-8-7----|--7---------------------------------| |-----------------------------10-|-----10----8-10-8-7-8-7-----7-------| |--------------------------------|--------------------------9---9---7-| |--------------------------------|------------------------------------| |--------------------------------|------------------------------------| |--------------------------------|------------------------------------| B5 Q. Q. Q +H. Q | | | | / / / / PM| Q. Q. Q +E Q. E E E E |--------------------|----------------------| |--------------------|----------------------| |----------------0---|-(0)------------------| |-0-----/4-------2---|-(2)--4-------2-0-----| |-2------------------|------5-------4-2-4-0-| |--------------------|------------------5-2-| | | Q E Q S S E E E E E E E E E E |--------------------|---------7------------| |------------8p7---7-|--8--10----10-8-7-----| |----------------9---|------------------9-7-| |-7---9--9-----------|----------------------| |--------------------|----------------------| |--------------------|----------------------| A5 Q. Q. Q +H. Q | | | | / / / / PM| Q. Q. Q +E Q. E E E E |--------------------|----------------------| |--------------------|----------------------| |----------------0---|-(0)------------------| |-------/4-------2---|-(2)--4------2-0------| |-4------------------|------5------4-2-4-0--| |-5------------------|-----------------5-2--| | | ~ | Q E Q S S E E E E E E Q E E |--------------------|---------7-8-7---7-8--| |------------8p7---7-|--8--10---------------| |----------------9---|----------------------| |-7---9--9-----------|----------------------| |--------------------|----------------------| |--------------------|----------------------| G5 Q. Q. Q +H. Q | | | | / / / / PM--| Q. Q. Q +E Q. E E E E |----------------------------------|-----------------------------------| |----------------------------------|-----------------------------------| |----------------------------0-----|-(0)-------------------------------| |-------------/4-------------2-----|-(2)---4----------2---0------------| |--2-------------------------------|-------5----------4---2---4---0----| |--3-------------------------------|--------------------------5---2----| | | |-3--| |---3----| |-3--| |-3-| |---3---| |-3-| |--3--| |--3--| | E E E E E E E E E E E E E E E E E E E E E E E E |-10--8-7-8-7--------7-------------|-----------------------------------| |-----------------10---10-8-10-8-7-|--8--7------7----------------------| |----------------------------------|----------9---9-7-9-7---6-7-6------| |----------------------------------|--------------------------------9--| |----------------------------------|-----------------------------------| |----------------------------------|-----------------------------------| A5 Q. Q. Q E Q. Q Q | | | | | | | / / / / / / / PM--| Q. Q. Q +E Q. E E E E |--------------------------------|-------------------------------------| |--------------------------------|-------------------------------------| |--------------------------0-----|-(0)---------------------------------| |------------/4------------2-----|-(2)---4-----------5----4---2---4----| |-4------------------------------|-------5-----------4----2------------| |-5------------------------------|----------------------------5---2----| | | |-3--| |---3---| |-3--| |-3-| |---3---| |-3--| |--3---| | E E E E E E E E E E E E E E E E E E E E E S S S S |-----------------------7--------|-------------------7-----------------| |----------------7-8-10---10-8-7-|--8--7------7-8-10---10---8-7-8p7----| |------6-7-9---------------------|----------9-----------------------9--| |-7--9---------------------------|-------------------------------------| |--------------------------------|-------------------------------------| |--------------------------------|-------------------------------------| B5 Q. Q. Q +H. Q | | | | / / / / PM--| Q. Q. Q +E Q. E E E E |----------------------------|-------------------------------------------| |----------------------------|-------------------------------------------| |----------------------0-----|-(0)---------------------------------------| |-0----------/4--------2-----|-(2)------4--------------2-----0-----------| |-2--------------------------|----------5--------------4-----2-----4---0-| |----------------------------|-------------------------------------5---2-| | | |---5---| |----5----| | Q Q Q Q S S S S S S S S S S S S S S S S E |----------------------------|-------------------------------------------| |----------------------------|-------------------------------------------| |-9b11--9b11-----9b11--9b11--|--9b11==9-9--9-9-9-9-9-9-9-9-9---9-9r9p7---| |----------------------------|-----------------------------------------9-| |----------------------------|-------------------------------------------| |----------------------------|-------------------------------------------| A5 Q. Q. Q +H. Q | | | | / / / / PM---| Q. Q. Q +E Q. E E E E |-------------------------------------|-------------------------------| |-------------------------------------|-------------------------------| |-------------------------------0-----|-(0)---------------------------| |--------------/4---------------2-----|-(2)-----4------2----0---------| |-4-----------------------------------|---------5------4----2--4----0-| |-5-----------------------------------|------------------------5----2-| | | E S S S S S S S S S S E S S S S E Q Q Q |--------10-10-10--------10-10-10-----|-10--10-10---------------------| |---------7--7--7---------7--7--7-----|--7---7--7-----10b12---10b12---| |-7-------7--7--7---------7--7--7-----|--7---7--7---------------------| |----x-x-----------x-x-x----------x-x-|-------------------------------| |----x-x-----------x-x-x----------x-x-|-------------------------------| |-------------------------------------|-------------------------------| G5 Q. Q. Q +H. Q | | | | / / / / PM| Q. Q. Q +E Q. E E E E |------------------------|------------------------| |------------------------|------------------------| |--------------------0---|-(0)--------------------| |---------/4---------2---|-(2)--4--------2-0------| |--2---------------------|------5--------4-2-4-0--| |--3---------------------|-------------------5-2--| | | ~~~~~ ~ | H S S E E E S S S S E E Q E E |------------------------|------------------------| |-10b12-------10p7---7-8-|--7h8p7-----------------| |------------------9-----|---------9-7---7-----7--| |------------------------|-------------9-----9----| |------------------------|------------------------| |------------------------|------------------------| A5 Q. Q. Q E Q. Q Q | | | | | | | / / / / / / / PM---| Q. Q. Q +E Q. E E E E |------------------------------|----------------------------------| |------------------------------|----------------------------------| |------------------------0-----|-(0)------------------------------| |------------/4----------2-----|-(2)---4----------5-4---2----4----| |-4----------------------------|-------5----------4-2-------------| |-5----------------------------|------------------------5----2----| | | |-3--| |---3---| |-3-| |-3-| |---3---| |-3-| | E E E E E E E E E E E E E E E E E E E S S S E S |------------------------------|----------------------------------| |------------------------------|-------------------------------12-| |-9--7---7---------------------|----------------------------------| |------9---9-----7-9-7---7-----|----------------------------------| |----------------------9---9-7-|--9--7----5-7-5---5-5-5-5-7/------| |------------------------------|----------------7-----------------| B5 Q. Q. Q | | | / / / Q. Q. Q |-------------------------------------------------| |-------------------------------------------------| |--------------------------------------0----------| |--0----------------/4-----------------2----------| |--2----------------------------------------------| |-------------------------------------------------| | | S S S S S S S S S S S S S S S S |-15p12----12-15p12-14p12----12-15p12-14p12----12-| |-------12----------------12----------------12----| |-------------------------------------------------| |-------------------------------------------------| |-------------------------------------------------| |-------------------------------------------------| +H. Q | / PM---| +E Q. E E E E |--------------------------------------------------| |--------------------------------------------------| |-(0)----------------------------------------------| |-(2)----4------------------2-----0----------------| |--------5------------------4-----2-----4-----0----| |---------------------------------------5-----2----| | | S S S S S S S S S S S S S S S S |-15p12-----12-15p12-14p12----12-15p12-14p12----12-| |-------12-----------------12----------------12----| |--------------------------------------------------| |--------------------------------------------------| |--------------------------------------------------| |--------------------------------------------------| A5 Q. Q. Q | | | / / / Q. Q. Q |--------------------------------------------------| |--------------------------------------------------| |---------------------------------------0----------| |-------------------/4------------------2----------| |--4-----------------------------------------------| |--5-----------------------------------------------| | | S S S S S S S S S S S S S S S S |-17p14----14-17p14-----14-17p14----14-17p14----14-| |-------15----------15-----------15----------15----| |--------------------------------------------------| |--------------------------------------------------| |--------------------------------------------------| |--------------------------------------------------| +H. Q | / PM---| +E Q. E E E E |--------------------------------------------------| |--------------------------------------------------| |-(0)----------------------------------------------| |-(2)----4------------------2-----0----------------| |--------5------------------4-----2-----4-----0----| |---------------------------------------5-----2----| | | S S S S S S S S S S S S S S S S |-17p14-----14-17p14----14-17p14----14-17p14----14-| |-------15-----------15----------15----------15----| |--------------------------------------------------| |--------------------------------------------------| |--------------------------------------------------| |--------------------------------------------------| G5 Q. Q. Q | | | / / / Q. Q. Q |-------------------------------------------------| |-------------------------------------------------| |--------------------------------------0----------| |-------------------/4-----------------2----------| |--2----------------------------------------------| |--3----------------------------------------------| | | S S S S S S S S S S S S S S S S |-19p15----15-19p15-17p15----15-19p15-17p15----15-| |-------17----------------17----------------17----| |-------------------------------------------------| |-------------------------------------------------| |-------------------------------------------------| |-------------------------------------------------| +H. Q | / PM---| +E Q. E E E E |--------------------------------------------------| |--------------------------------------------------| |-(0)----------------------------------------------| |-(2)----4------------------2-----0----------------| |--------5------------------4-----2-----4-----0----| |---------------------------------------5-----2----| | | S S S S S S S S S S S S S S S S |-19p15-----15-19p15-17p15----15-19p15-17p15----15-| |-------17-----------------17----------------17----| |--------------------------------------------------| |--------------------------------------------------| |--------------------------------------------------| |--------------------------------------------------| A5 Q. Q. Q | | | / / / Q. Q. Q |--------------------------------------------------| |--------------------------------------------------| |---------------------------------------0----------| |-------------------/4------------------2----------| |--4-----------------------------------------------| |--5-----------------------------------------------| | | S S S S S S S S S S S S S S S S |-21p17----17-21p17-----17-21p17----17-21p17----17-| |-------19----------19-----------19----------19----| |--------------------------------------------------| |--------------------------------------------------| |--------------------------------------------------| |--------------------------------------------------| E Q. Q Q | | | | / / / / PM---| +E Q. E E E E |--------------------------------------------------| |--------------------------------------------------| |-(0)----------------------------------------------| |-(2)----4------------------5-----4-----2-----4----| |--------5------------------4-----2----------------| |---------------------------------------5-----2----| | | S S S S S S S S S S S S S S S S |-21p17-----17-21p17----17-21p17----17-21p17----17-| |-------19-----------19----------19----------19----| |--------------------------------------------------| |--------------------------------------------------| |--------------------------------------------------| |--------------------------------------------------| B5 Q. Q. Q +H. Q | | | | / / / / PM-| Q. Q. Q +E Q. E E E E |--------------------------------|--------------------------------------------| |--------------------------------|--------------------------------------------| |--------------------------0-----|-(0)----------------------------------------| |--0-----------/4----------2-----|-(2)---4---------------2----0---------------| |--2-----------------------------|-------5---------------4----2---------4---0-| |--------------------------------|--------------------------------------5---2-| | | ~~~~~ | |------3-------| | Q Q Q Q Q Q Q Q a +E E |-22b24--22b24-----22b24--22b24--|-22b24----22b24-22b24-22b24---22b24r(22)-19-| |--------------------------------|--------------------------------------------| |--------------------------------|--------------------------------------------| |--------------------------------|--------------------------------------------| |--------------------------------|--------------------------------------------| |--------------------------------|--------------------------------------------| A5 Q. Q. Q +H. Q | | | | / / / / PM--| Q. Q. Q +E Q. E E E E |------------------------------------------|--------------------------------------------| |------------------------------------------|--------------------------------------------| |----------------------------------0-------|-(0)----------------------------------------| |-----------------/4---------------2-------|-(2)----4---------------2----0--------------| |--4---------------------------------------|--------5---------------4----2----4---0-----| |--5---------------------------------------|----------------------------------5---2-----| | | |--3---| |----3----| |--3--| |--3--| |----3----| |--3--| |--3---| |--3--| | E E E E E E E E E E E E E E E E E E E E E E E E |-22--20-19-20-19-----17-19-17-15-17-15-14-|-15--14----12-14-12-10-12-10---9-10-9---7---| |------------------------------------------|--------------------------------------------| |------------------------------------------|--------------------------------------------| |------------------------------------------|--------------------------------------------| |------------------------------------------|--------------------------------------------| |------------------------------------------|--------------------------------------------| G5 Q. Q. Q +H. Q | | | | / / / / PM| Q. Q. Q +E Q. E E E E |---------------------------------|--------------------------| |---------------------------------|--------------------------| |---------------------------0-----|-(0)----------------------| |--------------/4-----------2-----|-(2)---4----------2-0-----| |-2-------------------------------|-------5----------4-2-4-0-| |-3-------------------------------|----------------------5-2-| | | |--3--| |---3----| |-3-| |-3-| |---3---| |-3-| | E E E E E E E E E E E E E E E E E E E E E E |-9--7----7-----------------------|--------------------------| |------10---10-----8-10-8-7-8-7---|--7-----------------------| |-------------------------------9-|-----9----7-9-7---7-7-7-7-| |---------------------------------|----------------9---------| |---------------------------------|--------------------------| |---------------------------------|--------------------------| A5 Q. Q. Q E Q. Q Q | | | | | | | / / / / / / / PM| Q. Q. Q +E Q. E E E E |----------------------|---------------------------| |----------------------|---------------------------| |-------------------0--|-(0)-----------------------| |-------------/4----2--|-(2)-4----------5----4-2-4-| |-4--------------------|-----5----------4----2-----| |-5--------------------|-----------------------5-2-| | | TP TP TP | Q H. +Q +E. +S Q E E |----------------------|---------------------------| |----------------------|-----------------------7-7-| |-9b11--9b11===========|=(9)----(9)r(9)-9b11-------| |----------------------|---------------------------| |----------------------|---------------------------| |----------------------|---------------------------| B5 Q. Q. Q | | | / / / Q. Q. Q |--------------------------------------------------| |--------------------------------------------------| |--------------------------------------0-----------| |--0-----------------/4----------------2-----------| |--2-----------------------------------------------| |--------------------------------------------------| | | E. S S +S E S +S E S +S E |-------7------------------------------------------| |-10b12---10b12r(10)p=7--10b12r(10)p7-10b12r(10)p7-| |--------------------------------------------------| |--------------------------------------------------| |--------------------------------------------------| |--------------------------------------------------| +H. Q | / PM---| +E Q. E E E E |----------------------------------------------| |----------------------------------------------| |-(0)------------------------------------------| |-(2)--------4----------------2-----0----------| |------------5----------------4-----2--4-----0-| |--------------------------------------5-----2-| | | S +S E S +S E E E E E |----------------------------------------------| |-10b12r(10)p7--10b12r(10)p7-10b12-10-10b12-10-| |----------------------------------------------| |----------------------------------------------| |----------------------------------------------| |----------------------------------------------| A5 Q. Q. Q +H. Q | | | | / / / / PM--| Q. Q. Q +E Q. E E E E |-------------------------------------|-----------------------------------| |-------------------------------------|-----------------------------------| |-----------------------------0-------|-(0)-------------------------------| |----------------/4-----------2-------|-(2)---4-----------2---0-----------| |--4----------------------------------|-------5-----------4---2---4---0---| |--5----------------------------------|---------------------------5---2---| | | S S S S S S S S S S S S S S S S S S S S S S S S S S S S S S S S |-10p7--------------------------------|-----------------------------------| |------10p7----7-10p7-----------------|-----------------------------------| |-----------10--------9-7---7-9-7-----|-----------------------------------| |-------------------------9-------9-7-|--7--7-9p7---------------------7-9-| |-------------------------------------|-----------9-8-7-5-7-5---5-7s9-----| |-------------------------------------|-----------------------7-----------| G5 Q. Q. Q | | | / / / Q. Q. Q |------------------------------------------| |------------------------------------------| |-------------------------------0----------| |------------/4-----------------2----------| |-2----------------------------------------| |-3----------------------------------------| | | |--3--| | E E E E S S S S S S S S S S |------------------------------------12-15-| |------------11--12-13p12----12-x-15-------| |-7--9-11s14--------------14---------------| |------------------------------------------| |------------------------------------------| |------------------------------------------| +H. Q | / PM---| +E Q. E E E E |----------------------------------------------------| |----------------------------------------------------| |--(0)-----------------------------------------------| |--(2)-----4------------------2-----0----------------| |----------5------------------4-----2-----4-----0----| |-----------------------------------------5-----2----| | | +S S S S S S S S S S S S S S S S |-(15)p12-----12-15-12-15-12----12-15-12-15-12----12-| |---------15-----------------15----------------15----| |----------------------------------------------------| |----------------------------------------------------| |----------------------------------------------------| |----------------------------------------------------| A5 Q. Q. Q E Q. Q Q | | | | | | | / / / / / / / PM---| Q. Q. Q +E Q. E E E E |--------------------------------|---------------------------------*| |--------------------------------|---------------------------------*| |--------------------------0-----|-(0)-----------------------------*| |--------------/4----------2-----|-(2)---4----------5----4--2----4-*| |--4-----------------------------|-------5----------4----2---------*| |--5-----------------------------|--------------------------5----2-*| | | Q Q Q Q Q Q Q Q |--------------------------------|---------------------------------*| |-15-----15--------15-----15-----|-15-------15-----15------15------*| |-14b16--14b16-----14b16--14b16--|-14b16----14b16--14b16---14b16---*| |--------------------------------|---------------------------------*| |--------------------------------|---------------------------------*| |--------------------------------|---------------------------------*| Duration Legend --------------- W - whole; H - half; Q - quarter; E - 8th; S - 16th; T - 32nd; X - 64th; a - acciaccatura + - note tied to previous; . - note dotted; .. - note double dotted Uncapitalized letters represent notes that are staccato (1/2 duration) Irregular groupings are notated above the duration line Duration letters will always appear directly above the note/fret number it represents the duration for. Duration letters with no fret number below them represent rests. Multi- bar rests are notated in the form Wxn, where n is the number of bars to rest for. Low melody durations appear below the staff Tablature Legend ---------------- h - hammer-on p - pull-off b - bend pb - pre-bend r - bend release (if no number after the r, then release immediately) / - slide into or out of (from/to "nowhere") s - legato slide S - shift slide - natural harmonic [n] - artificial harmonic n(n) - tapped harmonic ~ - vibrato tr - trill T - tap TP - trem. picking PM - palm muting n/ - tremolo bar dip; n = amount to dip n - tremolo bar down n/ - tremolo bar up /n - tremolo bar inverted dip = - hold bend; also acts as connecting device for hammers/pulls <> - volume swell (louder/softer) x - on rhythm slash represents muted slash o - on rhythm slash represents single note slash Misc Legend ----------- | - bar || - double bar ||o - repeat start o|| - repeat end *| - double bar (ending) : - bar (freetime) $ - Segno & - Coda Tempo markers - = BPM(8/16=s8/s16), where s8 = swing 8ths, s16 = swing 16ths *************************************************************************************** * Generated using Power Tab Editor by Brad Larsen - http://powertab.guitarnetwork.org * ***************************************************************************************

    www.powertabs.net
    найти лекарство
    список лекарств






    О сайтеАккордыХит-парадПоискУроки ФорумыИщу песню
    ПрограммыСвежачок-сПодпискаСтатьи
    Яндекс.Метрика