Аккорды Idlewild | I Never Wanted гитара табулатуры уроки тексты песен Idlewild текст lyrics песня аккорды песни ноты нота электрогитара струна  
   А Б В Г Д Е Ж З И К Л М Н О П Р С Т У Ф Х Ч Ш Ы Э Ю Я       Разные песни
1-9 A B C D E F G H I J K L M N O P Q R S T U V W Y Z      Все исполнители in english

    



группа Idlewild, Аккорды песни I Never Wanted

Продолжаем грести бабос на ботах в Telegram.
Только в этот раз есть вариант автоматизировать это дело, привлекая рефералов. Вы можете заработать если »

Группа: Idlewild - другие аккорды (41),   о группе (1 статей),   диски (5),   фотографии (7)
Аккорды песни: I Never Wanted
Просмотров: 837
Подобрал: lewis herd (lewis_herd@hotmail.com)




    
Guitar intro
|-----------------------------------------------------------------
|-----------------------------------------------------------------
|----6-7-6---6---6-7-6-9-6---6-7-6--6---6-7-6-9-------------------
|---7------7---4-----------7-------7--4---------------------------
|-----------------------------------------------------------------
|-----------------------------------------------------------------
riff 1.   " ..i created myself...".    slide-ish thing
|-----------------------------------------------------------------
|-----------------------------------------------------------------
|--6-4-4-6-9-6-4-6-11-13-11-13-11-9-7-9-6-------------------------
|-----------------------------------------------------------------
|-----------------------------------------------------------------
|-----------------------------------------------------------------
riff 2.   "..the days wont let you..."
|-----------------------------------------------------------------
|--15-15-15-15-15-15-14-14-10-10-9-9-9-9-10-12--------------------
|-----------------------------------------------------------------
|-----------------------------------------------------------------
|-----------------------------------------------------------------
|-----------------------------------------------------------------
riff 3. 
|-----------------------------------------------------------------
|--15-15-15-15-15-15-14-14-10-10-10-10-12-12-12-14-14-14-17-17-17-
|-----------------------------------------------------------------
|-----------------------------------------------------------------
|-----------------------------------------------------------------
|-----------------------------------------------------------------
riff 4.   " .. i never wanted..."
|-----------------------------------------------------------------
|-----------------------------------------------------------------
|--/11-11-11-11-11-11-11-9--7-6--/13-13-13-14-13-11--------------
|-----------------------------------------------------------------

Продолжаем грести бабос на ботах в Telegram.
Только в этот раз есть вариант автоматизировать это дело, привлекая рефералов. Вы можете заработать если »

|----------------------------------------------------------------- |----------------------------------------------------------------- then. there is an acoustic bit. acou. riff "...there is no reason.." |---------------|---------------|---------------|-------------------- |-------7-------|-------4-------|-------2-------|--------4----------- |---9-----9---9-|---6-----6---6-|---4-----4---4-|----6-----6---6----- |-7---7-----7---|-4---4-----4---|-2---2-----2---|--4---4-----4------- |---------------|---------------|---------------|-------------------- |---------------|---------------|---------------|-------------------- x2 x2 x2 x1 riff 5. in background. |----------------------------------------------------------------- |-10-10-10-10-7-7-9-10-14-14-14-14-15-15-14-12-------------------- |----------------------------------------------------------------- |----------------------------------------------------------------- |----------------------------------------------------------------- |----------------------------------------------------------------- the order is. riff 1 x2 riff 2 x1 riff 3 x1 riff 4 x4 riff 1 x2 riff 2 x1 riff 3 x1 riff 4 x5 acou. x2 riff 4 x13 on the 9th time. riff 5 joins till the end

найти лекарство
список лекарств






О сайтеАккордыХит-парадПоискУроки ФорумыИщу песню
ПрограммыСвежачок-сПодпискаСтатьи
Яндекс.Метрика