Табулатура Metallica | Where The Wild Things Are  (2) гитара табулатуры уроки тексты песен Metallica текст lyrics песня аккорды песни ноты нота электрогитара струна  
   А Б В Г Д Е Ж З И К Л М Н О П Р С Т У Ф Х Ч Ш Ы Э Ю Я       Разные песни
1-9 A B C D E F G H I J K L M N O P Q R S T U V W Y Z      Все исполнители in english

    



группа Metallica, Табулатура песни Where The Wild Things Are (2)

Группа: Metallica - другие аккорды (225),   о группе (32 статей),   диски (11),   фотографии (49)
Табулатура песни: Where The Wild Things Are (2)
Просмотров: 2389
Прислал: xAL (xal@akkords.ru)




    
#----------------------------------PLEASE NOTE---------------------------------#
#This file is the author's own work and represents their interpretation of the #
#song. You may only use this file for private study, scholarship, or research. #
#------------------------------------------------------------------------------##
                            WHERE THE WILD THINGS ARE
                            As recorded by Metallica
                          (From the 1997 Album RELOAD)
Words and Music by James Hetfield, Lars Ulrich, and Jason Newsted
Arranged by iam3rd
          Em                  Cmaj7                 Fb5                Cmaj7/E
      0 2 2 0 0 x          x 3 2 0 0 0          x x 3 4 x x          0 3 2 0 0 0
          G5                   E5                   C7                    C
      3 5 5 x x x          0 2 x x x x          x 3 2 3 1 0          x 3 2 0 1 0
          D5                   C#5                  Bb5                  Gb5
      x 5 7 7 x x          x 4 6 6 x x          x 1 3 3 x x          3 4 5 x x x
          F5
      1 3 3 x x x
Gtr I (Eb Ab Db Gb Bb Eb) - 'Clean Rhythm (James)'
Gtr II (Eb Ab Db Gb Bb Eb) - 'Clean Rhythm (Kirk)'
Gtr III (Eb Ab Db Gb Bb Eb) - 'Distorted Rhythm (James)'
Gtr IV (Eb Ab Db Gb Bb Eb) - 'Distorted Rhythm/Lead (Kirk)'
Gtr V (Eb Ab Db Gb Bb Eb) - 'Distorted Rhythm (Kirk)'
 Intro
  Moderately Slow Rock Q=92
  Em    Cmaj7                         C7              C     N.C.
 2/4        4/4
  Gtr I
                                                              ~
   Q.    E   +Q   S S S S +E  E S S S S   +E  E S S S S +E  E Q
|----------|----------------------------|------------------------|
|-^0----^0-|-(0)------------------------|------------------------|
|-^0----^0-|-(0)--4-----4-(4)---4-----3-|-(3)---3-----0-(0)------|
|-^2----^2-|-(2)----2-------------2-----|---------2--------------|
|-^2----^3-|-(3)------3-------3-----3---|-----3-----3------------|
|-^0-------|----------------------------|-------------------0-1--|
|
| Gtr II
|  H          Q   S S S S +E  E S S S S   +E  E S S S S +H
|----------|----------------------------|------------------------|
|----------|----------------------------|------------------------|
|----------|------4-----4-(4)---4-----3-|-(3)---3-----0-(0)------|
|----------|--------2-------------2-----|---------2--------------|
|----------|----------3-------3-----3---|-----3-----3------------|
|----------|----------------------------|------------------------|

  Em    Cmaj7                         C7              C       N.C.
 2/4        4/4
   Q.    E   +Q   S S S S +E  E S S S S   +E  E S S S S +E  E S S E
|----------|----------------------------|---------------------------|
|-^0----^0-|-(0)------------------------|---------------------------|
|-^0----^0-|-(0)--4-----4-(4)---4-----3-|-(3)---3-----0-(0)---------|
|-^2----^2-|-(2)----2-------------2-----|---------2-----------------|
|-^2----^3-|-(3)------3-------3-----3---|-----3-----3---------3-2-0-|
|-^0-------|----------------------------|-------------------0-------|
|
| +H         +Q   S S S S +E  E S S S S   +E  E S S S S +H
|----------|----------------------------|---------------------------|
|----------|----------------------------|---------------------------|
|-(0)------|-(0)--4-----4-(4)---4-----3-|-(3)---3-----0-(0)---------|
|----------|--------2-------------2-----|---------2-----------------|
|----------|----------3-------3-----3---|-----3-----3---------------|
|----------|----------------------------|---------------------------|

  Em    Cmaj7                         C7              C     N.C.
 2/4        4/4
                                                              ~
   Q.    E   +Q   S S S S +E  E S S S S   +E  E S S S S +E  E Q
|----------|----------------------------|------------------------|
|-^0----^0-|-(0)------------------------|------------------------|
|-^0----^0-|-(0)--4-----4-(4)---4-----3-|-(3)---3-----0-(0)------|
|-^2----^2-|-(2)----2-------------2-----|---------2--------------|
|-^2----^3-|-(3)------3-------3-----3---|-----3-----3------------|
|-^0-------|----------------------------|-------------------0-1--|
|
| +H         +Q   S S S S +E  E S S S S   +E  E S S S S +H
|----------|----------------------------|------------------------|
|----------|----------------------------|------------------------|
|-(0)------|-(0)--4-----4-(4)---4-----3-|-(3)---3-----0-(0)------|
|----------|--------2-------------2-----|---------2--------------|
|----------|----------3-------3-----3---|-----3-----3------------|
|----------|----------------------------|------------------------|

  Em    Cmaj7                         C7
 2/4        4/4
   W          W
   Q.    E   +Q   S S S S +E  E S S S S
|----------|----------------------------|
|-^0----^0-|-(0)------------------------|
|-^0----^0-|-(0)--4-----4-(4)---4-----3-|
|-^2----^2-|-(2)----2-------------2-----|
|-^2----^3-|-(3)------3-------3-----3---|
|-^0-------|----------------------------|
|
| +H         +Q   S S S S +E  E S S S S
|----------|----------------------------|
|----------|----------------------------|
|-(0)------|-(0)--4-----4-(4)---4-----3-|
|----------|--------2-------------2-----|
|----------|----------3-------3-----3---|
|----------|----------------------------|

              C     N.C.   Em    Cmaj7
                           Gtr I
   W                        Q.   E +H
                            |    |  |
                            /    /  /
                      ~
  +E  E S S S S +E  E Q     W
|------------------------|---------------|
|------------------------|---------------|
|-(3)---3-----0-(0)------|---------------|
|---------2--------------|---------------|
|-----3-----3------------|---------------|
|-------------------0-1--|---------------|
|
| +E  E S S S S +H         +W
|------------------------|---------------|
|------------------------|---------------|
|-(3)---3-----0-(0)------|-(0)-----------|
|---------2--------------|---------------|
|-----3-----3------------|---------------|
|------------------------|---------------|

                           FbN.E5   N.C.      Fb5
  Gtr I                                               G
  +H.           Q          W
   |
   /
  Gtr II
  +H.           Q          W
|-----------------------||----------------------------|
|-----------------------||----------------------------|
|-(0)-------------------||----------------------------|
|-----------------------||----------------------------|
|-----------------------||----------------------------|
|-----------------------||----------------------------|
|
| Gtr III
|        <
|                            PM     PM|
|  Q   E E +Q   S S S S    e E E. S S S  S  S S S S S
|--------0-(0)----------||----------------------------|
|--------0-(0)----------||--------------<4>-----------|
|--------0-(0)--4-4-4-4-||-4---4--4-----------4-4-4-4-|
|--------2-(2)--3-3-3-3-||-3---2--2---------2-3-3-3-3-|
|--------3-(3)----------||----------------------------|
|--------0-(0)----------||---0------0-0---------------|

      N.CE5  N.C.  Fb5
 tr V
  Q   E. S S S E   Q
         | | |
         x x x
  W
|--------------------------|
|--------------------------|
|--------------------------|
|--------------------------|
|--------------------------|
|--------------------------|
|
|   PM     PM|   PM
| e E E. S S S S S S S S S
|--------------------------|
|--------------------------|
|-4---4--4---------4-4-4-4-|
|-3---2--2---------3-3-3-3-|
|--------------------------|
|---0------0-0---0---------|

  FbN.E5   N.C.      Fb5
  W
  Gtr III
    PM     PM|
  e E E. S S S  S  S S S S S
|----------------------------|
|--------------<4>-----------|
|-4---4--4-----------4-4-4-4-|
|-3---2--2---------2-3-3-3-3-|
|----------------------------|
|---0------0-0---------------|

  FbN.E5   N.C.          Fb5       FbN.E5   N.C.    Fb5
  Q   E. S  S   S   E    S S S S   W
         |  |   |        | | | |
         x  x   x        x x x x
                                 Gtrs III, V
    PM                               PM     PM----|
  e E E. S  S   S   S  S S S S S   E E E. S S S S S S S S S
|--------------------------------|---------------------------|
|----------<4>-<4>-<4>-----------|---------------------------|
|-4---4--4---------------4-4-4-4-|-4---4--4---------4-4-4-4--|
|-3---2--2-------------2-3-3-3-3-|-3---2--2---------3-3-3-3--|
|--------------------------------|---------------------------|
|---0----------------------------|---0------0-0-0-0----------|

  FbN.E5   N.C.    Fb5
    PM     PM----|
  E E E. S S S S S S S S S
|--------------------------|
|--------------------------|
|-4---4--4---------4-4-4-4-|
|-3---2--2---------3-3-3-3-|
|--------------------------|
|---0------0-0-0-0---------|

    N.E5   N.C.    Fb5         N.E5   N.C.    G5
    PM     PM----|             PM     PM----|
  E E E. S S S S S S S S S   E E E. S S S S S S S S S
|--------------------------|---------------------------|
|--------------------------|---------------------------|
|-4---4--4---------4-4-4-4-|-4---4--4------------------|
|-3---2--2---------3-3-3-3-|-3---2--2---------5-5-5-5--|
|--------------------------|------------------5-5-5-5--|
|---0------0-0-0-0---------|---0------0-0-0-0-3-3-3-3--|

                                1st, and 2nd Verses
                             $
    N.E5    G5          N.E5     N.G5            N.C.
                     2/4        4/4
                             Gtr III
    PM                  PM       PM  PM--------|       PM|     PM|
                                                 |-3-|
  e E Q  Q  S S S S   e E Q      S S S S S S S S S S S S S S S S S  10x
|-------------------|--------||--------------------------------------||
|-------------------|--------||o------------------------------------o||
|-------------------|--------||--------------------------------------||
|-5---------5-5-5-5-|-5------||----5---------------------------------||
|-5---2--2--5-5-5-5-|-5---2--||o---5-5-5-5-5-5-5--------------------o||
|-3-0-0--0--3-3-3-3-|-3-0-0--||--0-3-3-3-3-3-3-3-3h5p0-0-0-3p0-0-0---||
|
|                            Gtr V
|                                    PM--------|       PM|
|                                                |-3-|
| W                   W          S S S S S S S S S S S S S E   E    10x
|-------------------|--------||--------------------------------------||
|-------------------|--------||o------------------------------------o||
|-------------------|--------||----------------------------4---------||
|-------------------|--------||----5-----------------------2---------||
|-------------------|--------||o---5-5-5-5-5-5-5--------------------o||
|-------------------|--------||----3-3-3-3-3-3-3-3h5p0-0-0-----------||

  D5        C#5        Bb5       N.C.
                                     PM|     PM|
   S e S Q  S e S Q     S e S Q  S S S S  e  S S
|--------------------|---------------------------||
|--------------------|---------------------------||
|--7-7-7-7--6-6-6-6--|--3-3-3-3------------------||
|--7-7-7-7--6-6-6-6--|--3-3-3-3-----------5------||
|--5-5-5-5--4-4-4-4--|--1-1-1-1------5-5--5--5-5-||
|--------------------|-----------0h3-3-3--3--3-3-||
|
|  ~~~~~~~~~~~~~~~~~~~~~~~             ~~~~~~
|  H        H           H        S S S S +E  E
|--------------------|---------------------------||
|-10--------9--------|---------------------------||
|--------------------|-10--------6s7-7-7-(7)-7---||
|--------------------|---------------------------||
|--------------------|---------------------------||
|--------------------|---------------------------||

 Pre-Chorus
  D5        C#5        Bb5       N.C.
   S e S Q  S e S Q     S e S Q  S S E    S  S E
|--------------------|---------------------------|
|--------------------|---------------------------|
|--7-7-7-7--6-6-6-6--|--3-3-3-3------------------|
|--7-7-7-7--6-6-6-6--|--3-3-3-3-----------5s=7s5-|
|--5-5-5-5--4-4-4-4--|--1-1-1-1------------------|
|--------------------|-----------0h3-3----3s=5s3-|
|
|  ~~~~~~~~~~~~~~~~~~~~~~~             ~~~~~~
|  H        H           H        S S S S +E    E
|--------------------|---------------------------|
|-10--------9--------|---------------------------|
|--------------------|-10--------6s7-7-7-(7)---7-|
|--------------------|---------------------------|
|--------------------|---------------------------|
|--------------------|---------------------------|

  D5        C#5        Em   Cmaj7/E
                      2/4      4/4
                                                     >
   S e S Q  S e S Q    Q.   E   +W                  +W
|--------------------|-0------|-------------------|--------------------||
|--------------------|-0----0-|-(0)---------------|-(0)----------------||
|--7-7-7-7--6-6-6-6--|-0----0-|-(0)---------------|-(0)----------------||
|--7-7-7-7--6-6-6-6--|-2----2-|-(2)---------------|-(2)----------------||
|--5-5-5-5--4-4-4-4--|-2----3-|-(3)---------------|-(3)----------------||
|--------------------|-0----0-|-(0)---------------|-(0)----------------||
|
|                    Gtr II
|  ~~~~~~~~~~~
|  H        H          Q.   E    E  E E E E E E E    E  E E E E E E E
|--------------------|-0------|--0----0---0---0---|--0----0---0---0----||
|-10--------9--------|-0----1-|-----1---1---1---1-|-----1---1---1---1--||
|--------------------|-0------|-------------------|--------------------||
|--------------------|-2------|-------------------|--------------------||
|--------------------|-3------|-------------------|--------------------||
|--------------------|-0------|-------------------|--------------------||

 Chorus
  $$
  Em      Cmaj7                         C7              C     N.C.
 2/4          4/4
  Gtr I
                                                                ~
   Q.      E   +Q   S S S S +E  E S S S S   +E  E S S S S +E  E Q
|------------|----------------------------|------------------------|
|-^0------^0-|-(0)------------------------|------------------------|
|-^0------^0-|-(0)--4-----4-(4)---4-----3-|-(3)---3-----0-(0)------|
|-^2------^2-|-(2)----2-------------2-----|---------2--------------|
|-^2------^3-|-(3)------3-------3-----3---|-----3-----3------------|
|-^0---------|----------------------------|-------------------0-1--|
|
| Gtr II
|  E  E E  E   +Q   S S S S +E  E S S S S   +E  E S S S S +H
|--0----0----|----------------------------|------------------------|
|-----1----0-|-(0)------------------------|------------------------|
|------------|------4-----4-(4)---4-----3-|-(3)---3-----0-(0)------|
|------------|--------2-------------2-----|---------2--------------|
|------------|----------3-------3-----3---|-----3-----3------------|
|------------|----------------------------|------------------------|

  Em    Cmaj7                         C7              C       N.C.
 2/4        4/4
   Q.    E   +Q   S S S S +E  E S S S S   +E  E S S S S +E  E S S E
|----------|----------------------------|---------------------------|
|-^0----^0-|-(0)------------------------|---------------------------|
|-^0----^0-|-(0)--4-----4-(4)---4-----3-|-(3)---3-----0-(0)---------|
|-^2----^2-|-(2)----2-------------2-----|---------2-----------------|
|-^2----^3-|-(3)------3-------3-----3---|-----3-----3---------3-2-0-|
|-^0-------|----------------------------|-------------------0-------|
|
| +H         +Q   S S S S +E  E S S S S   +E  E S S S S +H
|----------|----------------------------|---------------------------|
|----------|----------------------------|---------------------------|
|-(0)------|-(0)--4-----4-(4)---4-----3-|-(3)---3-----0-(0)---------|
|----------|--------2-------------2-----|---------2-----------------|
|----------|----------3-------3-----3---|-----3-----3---------------|
|----------|----------------------------|---------------------------|

  Em    Cmaj7                         C7              C     N.C.
 2/4        4/4
                                                              ~
   Q.    E   +Q   S S S S +E  E S S S S   +E  E S S S S +E  E Q
|----------|----------------------------|------------------------|
|-^0----^0-|-(0)------------------------|------------------------|
|-^0----^0-|-(0)--4-----4-(4)---4-----3-|-(3)---3-----0-(0)------|
|-^2----^2-|-(2)----2-------------2-----|---------2--------------|
|-^2----^3-|-(3)------3-------3-----3---|-----3-----3------------|
|-^0-------|----------------------------|-------------------0-1--|
|
| +H         +Q   S S S S +E  E S S S S   +E  E S S S S +H
|----------|----------------------------|------------------------|
|----------|----------------------------|------------------------|
|-(0)------|-(0)--4-----4-(4)---4-----3-|-(3)---3-----0-(0)------|
|----------|--------2-------------2-----|---------2--------------|
|----------|----------3-------3-----3---|-----3-----3------------|
|----------|----------------------------|------------------------|

  Em    Cmaj7                         C7
 2/4        4/4
   W          W
   Q.    E   +Q   S S S S +E  E S S S S
|----------|----------------------------|
|-^0----^0-|-(0)------------------------|
|-^0----^0-|-(0)--4-----4-(4)---4-----3-|
|-^2----^2-|-(2)----2-------------2-----|
|-^2----^3-|-(3)------3-------3-----3---|
|-^0-------|----------------------------|
|
| +H         +Q   S S S S +E  E S S S S
|----------|----------------------------|
|----------|----------------------------|
|-(0)------|-(0)--4-----4-(4)---4-----3-|
|----------|--------2-------------2-----|
|----------|----------3-------3-----3---|
|----------|----------------------------|

              C     N.C.   Em    Cmaj7
                           Gtr I
   W                        Q.   E +H
                            |    |  |
                            /    /  /
                      ~
  +E  E S S S S +E  E Q     W
|------------------------|---------------|
|------------------------|---------------|
|-(3)---3-----0-(0)------|---------------|
|---------2--------------|---------------|
|-----3-----3------------|---------------|
|-------------------0-1--|---------------|
|
| +E  E S S S S +H         +W
|------------------------|---------------|
|------------------------|---------------|
|-(3)---3-----0-(0)------|-(0)-----------|
|---------2--------------|---------------|
|-----3-----3------------|---------------|
|------------------------|---------------|

 To Dbl. Coda                 To Coda
                      Cmaj7/EFb5        FbN.E5   N.C.    Fb5
  +W           +H.           Q          W
   |            |
   /            /
  Gtr II                             Gtrs III, V
                                          PM     PM----|
  +W           +H.           Q          E E E. S S S S S S S S S
|------------|-----------------------||---------------------------|
|------------|-----------------------||---------------------------|
|-(0)--------|-(0)-------------------||-4---4--4---------4-4-4-4--|
|------------|-----------------------||-3---2--2---------3-3-3-3--|
|------------|-----------------------||---------------------------|
|------------|-----------------------||---0------0-0-0-0----------|
|
| Gtr III
|                     <
|  W            Q   E E +Q   S S S S    W
|------------|--------0-(0)----------||---------------------------|
|------------|--------0-(0)----------||---------------------------|
|------------|--------0-(0)--4-4-4-4-||---------------------------|
|------------|--------2-(2)--3-3-3-3-||---------------------------|
|------------|--------3-(3)----------||---------------------------|
|------------|--------0-(0)----------||---------------------------|

  FbN.E5   N.C.    Fb5
    PM     PM----|
  E E E. S S S S S S S S S
|--------------------------|
|--------------------------|
|-4---4--4---------4-4-4-4-|
|-3---2--2---------3-3-3-3-|
|--------------------------|
|---0------0-0-0-0---------|

    N.E5   N.C.    Fb5         N.E5   N.C.    G5
    PM     PM----|             PM     PM----|
  E E E. S S S S S S S S S   E E E. S S S S S S S S S
|--------------------------|---------------------------|
|--------------------------|---------------------------|
|-4---4--4---------4-4-4-4-|-4---4--4------------------|
|-3---2--2---------3-3-3-3-|-3---2--2---------5-5-5-5--|
|--------------------------|------------------5-5-5-5--|
|---0------0-0-0-0---------|---0------0-0-0-0-3-3-3-3--|

                              Guitar Solo
                 D.S. al Coda
                             &
    N.E5    G5          N.E5   FbN.E5         N.C.        Fb5
                     2/4      4/4
                             Gtr IV
    PM                  PM     ~
  e E Q  Q  S S S S   e E Q    Q   S  S  S  S  S  S  S  S  S  S  E
|-------------------|--------|-----------------------------------------|
|-------------------|--------|-----------------------------------------|
|-------------------|--------|-9---9s10-10-10-10s13-13-13-13s14-14----|
|-5---------5-5-5-5-|-5------|-----------------------------------------|
|-5---2--2--5-5-5-5-|-5---2--|-7---7s=8--8--8--8s11-11-11-11s12-12----|
|-3-0-0--0--3-3-3-3-|-3-0-0--|-----------------------------------------|
|
|                            Gtrs III, V
|                                PM            PM------|
| W                   W        E E E.       S  S  S  S  S  S  S  S  S
|-------------------|--------|-----------------------------------------|
|-------------------|--------|-----------------------------------------|
|-------------------|--------|-4---4--------4--------------4--4--4--4--|
|-------------------|--------|-3---2--------2--------------3--3--3--3--|
|-------------------|--------|-----------------------------------------|
|-------------------|--------|---0-------------0--0--0--0--------------|

  FbN.E5        N.C.       Fb5            N.C.E5         N.C.        Fb5
  E E S  S  E    S  S  E    S  E    S   E S S S  S  S  S  S  S  S  S  S  S  S  S
|-------------------------------------|------------------------------------------|
|-------------------------------------|------------------------------------------|
|-9-9-9s10-10---10s13-13---13-14---10-|-9-----9s10-10-10-10s13-13-13-13s14-14s17-|
|-------------------------------------|------------------------------------------|
|-7-7-7s=8--8----8s11-11---11-12----8-|-7-7-7-7s=8--8--8--8s11-11-11-11s12-12s15-|
|-------------------------------------|------------------------------------------|
|
|   PM           PM------|                PM              PM------|
| E E E.      S  S  S  S S  S  S S  S   E E   E.       S  S  S  S  S  S  S  S  S
|-------------------------------------|------------------------------------------|
|-------------------------------------|------------------------------------------|
|-4---4-------4-------------4--4-4--4-|-4-----4--------4--------------4--4--4--4-|
|-3---2-------2-------------3--3-3--3-|-3-----2--------2--------------3--3--3--3-|
|-------------------------------------|------------------------------------------|
|---0------------0--0--0-0------------|---0---------------0--0--0--0-------------|

        N.C. E5        N.C.       G5       Gb5
   S  E    S  S   E  S  S  S  S S  Q
|-------------------------------0---------------|
|---------------------------------15------------|
|-17s16---17-17--16-17-17-16-16---14b16=========|
|-----------------------------------------------|
|-15s14---15-15--14-15-15-14-14-----------------|
|-----------------------------------------------|
|
|       PM              PM------|
|  E    E     E.     S  S  S  S S  S     S S S
|-----------------------------------------------|
|-----------------------------------------------|
|--4----------4------4--------------------------|
|--3----------2------2-------------5-----5-5-5--|
|----------------------------------5-----5-4-4--|
|-------0---------------0--0--0-0--3-----3-3-3--|

  Gb5  N.C.   G5         Gb5                     N.C.  G5                       Gb5
                      ~~~                                                           ~~
   +E.     S   E.  S  E. S  E        S  S    +E   S  S  +E   S  S  S  +S   S  S  S  E   S
|---------15--15--------------------------|-----------------------------------------------|
|-(15)----15--15--12-----0----------15----|------15---------15----------------------------|
|-(14)---(14)-14r-12-------14b16=======14-|-(14)----14-(14)----14-14r(14)-12------------x-|
|--------------------14-------------------|----------------------------------14-12-14---x-|
|-----------------------------------------|-----------------------------------------------|
|-----------------------------------------|-----------------------------------------------|
|
|      PM                                         PM
|   e  E       Q      Q     S     S  S  S     e   E      Q         Q             S  S S S
|-----------------------------------------|-----------------------------------------------|
|-----------------------------------------|-----------------------------------------------|
|-----------------------------------------|-----------------------------------------------|
|---5----------5------5-----5-----5--5--5-|---5----------5---------5-------------5--5-5-5-|
|---4--3-------5------5-----4-----4--4--4-|---4---3------5---------5-------------4--4-4-4-|
|---3--3-------3------3-----3-----3--3--3-|---3---3------3---------3-------------3--3-3-3-|

      N.C. G5              Gb5
            ~~~                     ~~
                         |---3---|
   E.    S  E. S  E      S  +S   S  E    S  S
|----------------------------------------------|
|-15-----------0-15----------------------------|
|-14----12-------14b16==14r(14)p12------12-----|
|----------14----------------------14------12--|
|----------------------------------------------|
|----------------------------------------------|
|
|     PM
|  e  E     Q     Q                 S S  S  S
|----------------------------------------------|
|----------------------------------------------|
|----------------------------------------------|
|--5--------5-----5-----------------5-5--5--5--|
|--4--3-----5-----5-----------------4-4--4--4--|
|--3--3-----3-----3-----------------3-3--3--3--|

  Gb5    N.G5              F5   G5
   Q        S  E  S  +E.     a   +S   E       +E
|----------15------------------------15------(15)---|
|-15----------15---------------------15------(15)---|
|-14b16==========14-(14)---(14)r(14)-14b17r==(14)---|
|---------------------------------------------------|
|---------------------------------------------------|
|---------------------------------------------------|
|
|        PM
|  e     E  Q         E  S        S   S    S   S  S
|---------------------------------------------------|
|---------------------------------------------------|
|---------------------------------------------------|
|--5--------5---------5--3s=======5---5----5---5--5-|
|--4-----3--5---------5--3s=======5---5----5---5--5-|
|--3-----3--3---------3--1s=======3---3----3---3--3-|

         N.C.       E5          G5                       N.C.       E5           G5
                     ~~                                              ~~
          |---3---|                                       |---3---|
   E      S  +S   S  Q   E S  S  E       +S   S    E      S  +S   S  Q   E  +E   E    E
|-----------------------------------------------|------------------------------------------|
|-----------------------12----------------------|-----------------------12-(12)-----------|
|-14b16==14r(14)p12-----12s7s12-14b16r==(14)p12-|-14b16==14r(14)p12-----12-(12)-7s==15----|
|-------------------14--------------------------|-------------------14---------------------|
|-----------------------------------------------|------------------------------------------|
|-----------------------------------------------|------------------------------------------|
|
|         PM                                              PM
|  e      E          Q   Q       S    S   S   S    e      E          Q   Q       S S  S S
|-----------------------------------------------|------------------------------------------|
|-----------------------------------------------|------------------------------------------|
|-----------------------------------------------|------------------------------------------|
|--5-----------------------------5----5---5---5-|--5-----------------------------5-5--5-5--|
|--5-----------------2---2-------5----5---5---5-|--5-----------------2---2-------5-5--5-5--|
|--3------0----------0---0-------3----3---3---3-|--3------0----------0---0-------3-3--3-3--|

  G5     N.E5            G5                  N.C.  E5
                                      2/4
      ~~~      ~~~    ~~~
   S  E.    S  E.  S  E.  S  S  S  S    S  S  S  S  S  S  E
|------------------------------------|-------15--------------|
|-15-------15-----15-----15----------|-15h17----17-15----15-|
|----16-------16-----16-----16-16-16-|----------------16-----|
|------------------------------------|-----------------------|
|------------------------------------|-----------------------|
|------------------------------------|-----------------------|
|
Узнай ВСЕ о своем друге в ВК или FB
| PM | e E Q Q S S S S E E E E |------------------------------------|-----------------------| |------------------------------------|-----------------------| |------------------------------------|-----------------------| |--5----------------------5--5--5--5-|--5-----------2-----x--| |--5--------2------2------5--5--5--5-|--5-----------2-----x--| |--3-----0--0------0------3--3--3--3-|--3-----0-----0-----x/-| D5 C#5 4/4 ~~~~~~~~~~~~ ~~~~~ S E S +E E E. S +E E |---10----10-----(10)-----9-------9------(9)-----| |---13b15-13b15==(13)r---12b14---12b14==(12)r----| |------------------------------------------------| |------------------------------------------------| |------------------------------------------------| |------------------------------------------------| | | S e S Q S e S Q |------------------------------------------------| |------------------------------------------------| |-7--7-----7-------7------6----6--6-------6------| |-7--7-----7-------7------6----6--6-------6------| |-5--5-----5-------5------4----4--4-------4------| |------------------------------------------------| Bb5 N.C. G5 ~~~~ ~~~~~~~ E S S +E +E E. S +S S E |----------------------------------------------------------| |-11---------11-----(11)-(11)--12---------12-(12)-12------| |-13b15---13-13b15==(13)-(13)r-14b16======14-(14)-14r-----| |----------------------------------------------------------| |----------------------------------------------------------| |----------------------------------------------------------| | | PM| PM| | S e S Q S S S S e S S |----------------------------------------------------------| |----------------------------------------------------------| |--3----3-----3-------3------------------------------------| |--3----3-----3-------3-------------------------5----------| |--1----1-----1-------1------------------5--5---5------5-5-| |--------------------------------0h====3-3--3---3------3-3-| D5 C#5 ~~~~~~ S e S S E S S S S S +E E |----10-10---10-10-10s9------------| |-13--------------------10---------| |--------------------------9-(9)---| |----------------------------------| |----------------------------------| |----------------------------------| | | S e S Q S e S Q |----------------------------------| |----------------------------------| |--7--7--7-7--------6-6----6--6----| |--7--7--7-7--------6-6----6--6----| |--5--5--5-5--------4-4----4--4----| |----------------------------------| Bb5 N.C. (G5) S S S S +S E S Q E +E |-----------------------------------------------| |-------------------------------12--------------| |-------------------------------12--------------| |----------------------------14--------14-(14)-| |----10-12-12b13==(12)r-12----------------------| |-12--------------------------------------------| | | S e S E E S S E E E |-----------------------------------------------| |-----------------------------------------------| |--3--3-----3-------3---------------------------| |--3--3-----3-------3------------5s7s5--5-------| |--1--1-----1-------1---------------------------| |--------------------------0-----3s5s3--3-------| D5 C#5 Em Cmaj7/E 2/4 ~ S e S S E S S S S S +E S S Q. E |----10-10---10-10-10s9----------0-0-|-12------12-----| |-13--------------------10-----------|-15b17---15b17==| |--------------------------9-(9)-----|----------------| |------------------------------------|----------------| |------------------------------------|----------------| |------------------------------------|----------------| | | S e S Q S e S Q Q. E |------------------------------------|----------0-----| |------------------------------------|--0-------0-----| |--7--7--7-7--------6-6----6--6------|--0-------0-----| |--7--7--7-7--------6-6----6--6------|--2-------2-----| |--5--5--5-5--------4-4----4--4------|--2-------3-----| |------------------------------------|--0-------0-----| Fb5 4/4 Gtr V +W +W +Q Q E S S S S S S |-(12)--------|-(12)--------|-(12)--------------------| |-(15)--------|-(15)--------|-(15)r-------------------| |-------------|-------------|-------------x-x-4-4-4-4-| |-------------|-------------|-------------x-x-3-3-3-3-| |-------------|-------------|-------------------------| |-------------|-------------|-------------------------| | | > | +W +W W |--(0)--------|--(0)--------|-------------------------| |--(0)--------|--(0)--------|-------------------------| |--(0)--------|--(0)--------|-------------------------| |--(2)--------|--(2)--------|-------------------------| |--(3)--------|--(3)--------|-------------------------| |--(0)--------|--(0)--------|-------------------------| Fb5 N.C. E5 Fb5 N.C. E5 Fb5 Gtr V e E Q E S S S S S S e E Q E S S S S S S e E Q E S S S S S S |----------------------|--------------------------|--------------------------| |----------------------|--------------------------|--------------------------| |-4--------x-x-4-4-4-4-|-4------------x-x-4-4-4-4-|-4------------x-x-4-4-4-4-| |-3--------x-x-3-3-3-3-|-3------------x-x-3-3-3-3-|-3------------x-x-3-3-3-3-| |----------------------|--------------------------|--------------------------| |----------------------|--------------------------|--------------------------| | | Gtr III | W Q E. S +E E Q Q E. S +E E Q |----------------------|--------------------------|--------------------------| |----------------------|--------------------------|--------------------------| |----------------------|--------4-(4)-------------|--------4-(4)-------------| |----------------------|--------2-(2)-------------|--------2-(2)-------------| |----------------------|--------------------------|--------------------------| |----------------------|-----0--------------------|-----0--------------------| Bridge Fb5 N.C. E5 Fb5 e E Q E S S S S S S 12x ||----------------------------|| ||o--------------------------o|| ||--4------------x-x-4-4-4-4--|| ||--3------------x-x-3-3-3-3--|| ||o--------------------------o|| ||----------------------------|| | | Q E. S +E E Q 12x ||----------------------------|| ||o--------------------------o|| ||---------4-(4)--------------|| ||---------2-(2)--------------|| ||o--------------------------o|| ||------0---------------------|| N.C. E5 Fb5 N.E5 N.C. e E Q E S S S S S S e E Q H |--------------------------|---------------------------|| |--------------------------|---------------------------|| |-4------------x-x-4-4-4-4-|-4-------------------------|| |-3------------x-x-3-3-3-3-|-3-------------------------|| |--------------------------|---------------------------|| |--------------------------|---------------------------|| | | Q E. S +E E S S S S e E S S S S +S E S E E |--------------------------|---------------------------|| |--------------------------|---------------------------|| |--------4-(4)-----4-4-4-4-|-4---4-4-4-4-(4)-4-4-4-----|| |--------2-(2)-----3-3-3-3-|-3---2-2-2-2-(2)-2-2-2-----|| |--------------------------|-----------------------9--|| |-----0--------------------|---0-----------------------|| Pre Chorus 1.,2.,3. D5 C#5 Bb5 N.C.G5 Gtr III PM| PM| S e S Q S e S Q S e S Q S S S S e S S 4x ||---------------------|----------------------------|| ||o--------------------|---------------------------o|| ||---7-7-7-7--6-6-6-6--|--3-3-3-3-------------------|| ||---7-7-7-7--6-6-6-6--|--3-3-3-3-----------5-------|| ||o--5-5-5-5--4-4-4-4--|--1-1-1-1------5-5--5--5-5-o|| ||---------------------|-----------0h3-3-3--3--3-3--|| | | Gtr V | ~~~~~~~~~~~~~~~~~~~~~~~ ~~~~~~ | H H H S S S S +E E 4x ||---------------------|----------------------------|| ||o-10--------9--------|---------------------------o|| ||---------------------|-10--------6s7-7-7-(7)-7----|| ||---------------------|----------------------------|| ||o--------------------|---------------------------o|| ||---------------------|----------------------------|| 4. D.S.S. al Dbl. Coda Cmaj7/E 2/4 4/4 Gtr V W W H Q E. S | x Gtr II Q. E E E E E E E E E E E E E E E E E |-0------|--0----0---0---0---|--0----0---0---0------| |-0----1-|-----1---1---1---1-|-----1---1---1----1---| |-0------|-------------------|----------------------| |-2------|-------------------|----------------------| |-3------|-------------------|----------------------| |-0------|-------------------|----------------------| | | Gtr I | > | Q. E +W +W |-0------|-------------------|----------------------| |-0----0-|-(0)---------------|-(0)------------------| |-0----0-|-(0)---------------|-(0)------------------| |-2----2-|-(2)---------------|-(2)------------------| |-2----3-|-(3)---------------|-(3)------------------| |-0----0-|-(0)---------------|-(0)------------------| Outro && Cmaj7/EFb5 FbN.E5 N.C. Fb5 Gtr I +H H W | / Gtr III Gtr IV < Q E E +Q S S S S Q S S S S S S S S S S e |-------0-(0)----------||---------------------------------------| |-------0-(0)----------||---------------------------------------| |-------0-(0)--4-4-4-4-||-9---9s10-10-10-10s13-13-13-13s14-14---| |-------2-(2)--3-3-3-3-||---------------------------------------| |-------3-(3)----------||-7---7s=8--8--8--8s11-11-11-11s12-12---| |-------0-(0)----------||---------------------------------------| | | Gtrs III, V | PM PM------| | W E E E. S S S S S S S S S |----------------------||---------------------------------------| |----------------------||---------------------------------------| |----------------------||-4---4--------4--------------4--4--4-4-| |----------------------||-3---2--------2--------------3--3--3-3-| |----------------------||---------------------------------------| |----------------------||---0-------------0--0--0--0------------| N.C.E5 N.C. Fb5 W E S S S S S S S S S S S S S S |------------------------------------------| |------------------------------------------| |-9-9-9-9s10-10-10-10s13-13-13-13s14-14-14-| |------------------------------------------| |-7-7-7-7s=8--8--8--8s11-11-11-11s12-12-12-| |------------------------------------------| | | PM PM------| | E E E. S S S S S S S S S |------------------------------------------| |------------------------------------------| |-4-----4--------4--------------4--4--4--4-| |-3-----2--------2--------------3--3--3--3-| |------------------------------------------| |---0---------------0--0--0--0-------------| Fb5 N.C. E5 N.C. Fb5 |-----------6-----------| S S S S S S S S S +S S S S S S S S S |----------------------------------------------------------------| |----------------------------------------------------------12h15-| |-14s16-16-16-------12-14-14b16r(14)p==12-14p12------12h14-------| |-------------12h14-------------------------------14-------------| |-12s14-14-14----------------------------------------------------| |----------------------------------------------------------------| | | PM PM-------------------| | E E E. S S S S S S S S S |----------------------------------------------------------------| |----------------------------------------------------------------| |--4-----------4--------4-----------------------------4--4--4--4-| |--3-----------2--------2-----------------------------3--3--3--3-| |----------------------------------------------------------------| |--------0-----------------0---------0-----0----0----------------| N.C. E5 N.C. Fb5 T T T T S S S S S S S +S E E +S S |-----------------------------------------------------------------| |-12h15p12----12----------------------------------15--------------| |----------14----14-12-----12-14-14pb16r(14)p12---14b16r==(14)p12-| |-----------------------14----------------------------------------| |-----------------------------------------------------------------| |-----------------------------------------------------------------| | | PM PM------------| | E E E. S S S S S S S S S |-----------------------------------------------------------------| |-----------------------------------------------------------------| |--4-----------------4---------4-------------------4----4---4---4-| |--3-----------------2---------2-------------------3----3---3---3-| |-----------------------------------------------------------------| |--------------0------------------0-------0---0-0-----------------| N.C. E5 N.C. Fb5 ~~~ |---3---| E S +S S Q E +E E +S S |------------------------------------------------------| |-------------------------12---(12)---15------(15)----| |-14b16==14r(14)-12-------12---(12)---14b16r==(14)p12-| |-------------------14---------------------------------| |------------------------------------------------------| |------------------------------------------------------| | | PM PM--------| | E E E. S S S S S S S S S |------------------------------------------------------| |------------------------------------------------------| |--4-----------------4--4---------------4----4---4---4-| |--3-----------------2--2---------------3----3---3---3-| |------------------------------------------------------| |---------0----------------0-0---0---0-----------------| | | Gtr V | W |------------------------------------------------------| |------------------------------------------------------| |------------------------------------------------------| |------------------------------------------------------| |------------------------------------------------------| |------------------------------------------------------| N.C. E5 N.C. Fb5 ~~~ |---3---| E S +S S Q E +E E S S |---------------------------------------------------| |-------------------------12---(12)----------------| |-14b16==14r(14)-12-------12---(12)-------------12-| |-------------------14-----------------/14----14----| |---------------------------------------------------| |---------------------------------------------------| | | PM PM--------| | E E E. S S S S S S S S S |---------------------------------------------------| |---------------------------------------------------| |--4-----------------4--4----------------4--4--4--4-| |--3-----------------2--2----------------3--3--3--3-| |---------------------------------------------------| |---------0----------------0-0---0---0--------------| | | PM PM--------| | E E E. S S S S S S S S S |---------------------------------------------------| |---------------------------------------------------| |--4-----------------4--4----------------9s10-10-10-| |--3-----------------2--2---------------------------| |----------------------------------------7s=8--8--8-| |---------0----------------0-0---0---0--------------| Fb5 N.C. E5 N.C. Fb5 T T T T T T T T T T T T T T T T T T T T T S T T S T T S T |-----------------------------------------------------------------------------------------------------| |-----------------------------------------------------------------------------------------------------| |-14p12----12-14p12-14p12-----12-14p12-14p12s11-/12h14p12s11-/12h14p12---12h14p12----12h14p12----12h==| |-------14----------------14--------------------------------------------------------------------------| |-----------------------------------------------------------------------------------------------------| |-----------------------------------------------------------------------------------------------------| | | PM PM----------------| | E E E. S S S S S S S S S |-----------------------------------------------------------------------------------------------------| |-----------------------------------------------------------------------------------------------------| |--4-----------------------4------------------4------------------------------4-----4-----4-----4------| |--3-----------------------2------------------2------------------------------3-----3-----3-----3------| |-----------------------------------------------------------------------------------------------------| |--------------0-------------------------------------0-----0------0----0------------------------------| | | PM----------------| | S S E Q S S S S S S S S |-----------------------------------------------------------------------------------------------------| |-----------------------------------------------------------------------------------------------------| |-10s===12----12S==========9-------------------------------------------------9s===10----10s===12------| |-----------------------------------------------------------------------------------------------------| |--8s===10----10S==========7-------------------------------------------------7s====8-----8s===10------| |----------------------------------------------------0-----0------0----0------------------------------| N.C. E5 N.C. G5 G |----3-----| T T S S S S +S S S S +E E E +S S |----------------------------------------------------------------| |------------------------------------------------15--------------| |-14p12----12-14-14b16r(14)p12----12-(12)-------14b16r==(14)p12-| |-------14---------------------14--------------------------------| |----------------------------------------------------------------| |----------------------------------------------------------------| | | G | PM PM--| PM | E E E. S S S S S S S S S |----------------------------------------------------------------| |----------------------------------------------------------------| |--4--------------4----------------4-----------------------------| |--3--------------2----------------2--------------5----5---5---5-| |-------------------------------------------------5----5---5---5-| |-----------0--------------------------0---0---0--3----3---3---3-| | | PM------| | S E S Q S S S S S S S S |----------------------------------------------------------------| |----------------------------------------------------------------| |-10-----9-----7--9----------------------------------------------| |-------------------------------------------------5----5---5---5-| |--8-----7-----5--7-------------------------------5----5---5---5-| |--------------------------------------0---0-0-0--3----3---3---3-| N.C. E5 G5 tr IV ~~ |---3----| E +S +S S Q E +E E S S |----------------------------------------------| |-------------------------12-(12)-------------| |-14b16==(14)r(14)p12-----12-(12)-/16---16-16-| |---------------------14-----------------------| |----------------------------------------------| |----------------------------------------------| | |trs III, V | PM | e E Q Q S S S S |----------------------------------------------| |----------------------------------------------| |----------------------------------------------| |--5---------------------------------5-5--5--5-| |--5-------------------2---2---------5-5--5--5-| |--3-------0-----------0---0---------3-3--3--3-| | | W |----------------------------------------------| |----------------------------------------------| |----------------------------------------------| |----------------------------------------------| |----------------------------------------------| |----------------------------------------------| N.C. E5 G5 ~~~~~~~ |---------6----------| S S S S S +S S S S S S S E +S e S |-----------------------------------------------------------| |-15----15-17-17pb19r(17)p15-17p15----15h17-15-(15)-12---12-| |----16----------------------------16---------------12---12-| |-----------------------------------------------------------| |-----------------------------------------------------------| |-----------------------------------------------------------| | | PM | e E Q Q S S S S |-----------------------------------------------------------| |-----------------------------------------------------------| |-----------------------------------------------------------| |--5---------------------------------------------5---5-5--5-| |--5-----------2-----------------------2---------5---5-5--5-| |--3-----0-----0-----------------------0---------3---3-3--3-| N.C. E5 G5 S e S S e S S S S S S e S |------------------------------------------| |---12---12---12-------------------12---12-| |---12---12---12-12-14p12----------12---12-| |-------------------------14p12-14---------| |------------------------------------------| |------------------------------------------| | | PM | e E Q Q S S S S |------------------------------------------| |------------------------------------------| |------------------------------------------| |-5------------------------------5--5-5--5-| |-5---------2--------2-----------5--5-5--5-| |-3----0----0--------0-----------3--3-3--3-| Freely, Slowly Q=75 N.C. E5 Em Cmaj7/E 2/4 4/4 ~~~~ S e S S E S E +E E E +W +Q E. S +Q E. S |-------------------|---------------|-------------:----------------------------: |---12---12---12----|-12--(12)---12-|-(12)--------:-(12)--12--12-(12)--12--11--: |---12---12---12----|-12--(12)-0-12-|-(12)--------:-(12)-----------------------: |----------------14-|---------------|-------------:----------------------------: |-------------------|---------------|-------------:----------------------------: |-------------------|---------------|-------------:----------------------------: | | e E Q Q. E +W +W |-------------------|-------------0-|--(0)--------:--(0)-----------------------: |-------------------|--0----------0-|--(0)--------:--(0)-----------------------: |-------------------|--0----------0-|--(0)--------:--(0)-----------------------: |-5---------2-------|--2----------2-|--(2)--------:--(2)-----------------------: |-5---------2-------|--2----------3-|--(3)--------:--(3)-----------------------: |-3----0----0-------|--0----------0-|--(0)--------:--(0)-----------------------: +Q Q Q Q +W |-------------------:--------|| |-(11)--11s=8--[8]--:-(8)----|| |-------------------:--------|| |-------------------:--------|| |-------------------:--------|| |-------------------:--------|| | | > | +W W |--(0)--------------:--------|| |--(0)--------------:--------|| |--(0)--------------:--------|| |--(2)--------------:--------|| |--(3)--------------:--------|| |--(0)--------------:--------|| Duration Legend --------------- W - whole; H - half; Q - quarter; E - 8th; S - 16th; T - 32nd; X - 64th; a - acciaccatura + - note tied to previous; . - note dotted; .. - note double dotted Uncapitalized letters represent notes that are staccato (1/2 duration) Irregular groupings are notated above the duration line Duration letters will always appear directly above the note/fret number it represents the duration for. Duration letters with no fret number below them represent rests. Multi- bar rests are notated in the form Wxn, where n is the number of bars to rest for. Low melody durations appear below the staff Tablature Legend ---------------- h - hammer-on p - pull-off b - bend pb - pre-bend r - bend release (if no number after the r, then release immediately) / - slide into or out of (from/to "nowhere") s - legato slide S - shift slide - natural harmonic [n] - artificial harmonic n(n) - tapped harmonic ~ - vibrato tr - trill T - tap TP - trem. picking PM - palm muting n/ - tremolo bar dip; n = amount to dip n - tremolo bar down n/ - tremolo bar up /n - tremolo bar inverted dip = - hold bend; also acts as connecting device for hammers/pulls <> - volume swell (louder/softer) x - on rhythm slash represents muted slash o - on rhythm slash represents single note slash Misc Legend ----------- | - bar || - double bar ||o - repeat start o|| - repeat end *| - double bar (ending) : - bar (freetime) $ - Segno & - Coda Tempo markers - = BPM(8/16=s8/s16), where s8 = swing 8ths, s16 = swing 16ths *************************************************************************************** * Generated using Power Tab Editor by Brad Larsen - http://powertab.guitarnetwork.org * ***************************************************************************************

http://www.powertabs.net/
лекарство в аптеке
список лекарств

Щиты 3х6 реутов

И щитов , световых панелей, уличной мебели

reklama-neon.com

Коврик пазл большой

Коврики Tiny Love и Bright Starts для развития Вашего малыша. Низкие цены

pol-par.ru

Тут

дженерик дуодарта

duoprost.biz








О сайтеАккордыХит-парадПоискУроки ФорумыИщу песню
ПрограммыСвежачок-сПодпискаСтатьи
Яндекс.Метрика