Табулатура Metallica | And Justice For All  (2) гитара табулатуры уроки тексты песен Metallica текст lyrics песня аккорды песни ноты нота электрогитара струна  
   А Б В Г Д Е Ж З И К Л М Н О П Р С Т У Ф Х Ч Ш Ы Э Ю Я       Разные песни
1-9 A B C D E F G H I J K L M N O P Q R S T U V W Y Z      Все исполнители in english

    



группа Metallica, Табулатура песни And Justice For All (2)

Работа в Европе для граждан РФ, Украины, СНГ

  • минимальная зарплата $500.
  • виза и контракт на полгода, возможно продление
  • проживание оплачивает работодатель
  • нужен только загранпаспорт
  • оформление 190 €
  • данное предложение - отличная возможность эмигрировать в Европу и закрепиться здесь навсегда.

  • Мы свяжемся с Вами по WhatsApp или Viber и ответим на любые вопросы.
    на нашем сайте можно почитать подробнее »

    Группа: Metallica - другие аккорды (225),   о группе (32 статей),   диски (11),   фотографии (49)
    Табулатура песни: And Justice For All (2)
    Просмотров: 3538
    Прислал: DiaSpar (diaspar@i.com.ua)




        
    #----------------------------------PLEASE NOTE---------------------------------#
    #This file is the author's own work and represents their interpretation of the #
    #song. You may only use this file for private study, scholarship, or research. #
    #------------------------------------------------------------------------------##
                                   AND JUSTICE FOR ALL
                                As recorded by Metallica
                        (From the 1988 Album AND JUSTICE FOR ALL)
    Words by Hetfield
    Music by Hetfield,Hammett and Ulrich
              Bb5                  A5                   G5                   F5
          6 8 8 x x x          5 7 7 x x x          3 5 5 x x x         x 8 10 x x x
              E5                   Ab5                  D5             E5open(type 2)
          x 7 9 x x x          4 6 6 x x x          x 5 7 x x x          0 2 2 x x x
         E5VII(type 2)             C5                   F5I              E5(type 2)
          x 7 9 9 x x          x 3 5 x x x          1 3 3 x x x          0 7 9 x x x
          E5(type 3)           C5(type 2)               B5                   F#5
          0 7 9 9 x x          x 3 5 5 x x          x 2 4 4 x x          2 4 4 x x x
              Bm                   Bb                  Bb5I                   E
          x 2 0 x x x          x 1 0 x x x          x 1 3 x x x          x 7 6 4 x x
               D                    C
          x 5 4 2 x x          x 3 2 0 x x
    Gtr I (E A D G B E) - 'James(Acoustic)'
    Gtr II (E A D G B E) - 'Kirk(Acoustic)'
    Gtr III (E A D G B E) - 'James(Distortion)'
    Gtr IV (E A D G B E) - 'Kirk(Distortion)'
    Gtr V (E A D G B E) - 'Extra dubbed Gtr.'
       Intro
        Moderately Slow  Q=96
        E                     D              C                     Bm
       3/4
        Gtr I
                      |-3-|                                |-3-|
        E  E Q     E  S S S   E  E E E E E   E  E Q     E  S S S   E  E E E E E
    ||----------------------|--------------|---------------------|--------------|
    ||o---------------------|--------------|---------------------|--------------|
    ||----------------------|--------------|---------------------|--------------|
    ||--6--7-9-----7--6h7p6-|-4--5-5-4-7-4-|-2--3-5-----3--2-3p2-|-0--2-2-0-2-0-|
    ||o-7------7------------|-5------5---5-|-3------3------------|-2------2---2-|
    ||--0-------------------|--------------|---------------------|--------------|
    |   Q.     Q.             Q.     Q   E   Q.     Q.             Q.     Q   E
    |
    |   Gtr II
    |   Q.     E  +Q          Q.     Q   E   Q.     E  +Q          Q.     Q   E
    ||----------------------|--------------|---------------------|--------------|
    ||o---------------------|--------------|---------------------|--------------|
    ||--4------4--(4)-------|-2------2---2-|-0------0--(0)-------|--------------|
    ||--6------6--(6)-------|-4------4---4-|-2------2--(2)-------|-0------0---0-|
    ||o-7------7--(7)-------|-5------5---5-|-3------3--(3)-------|-2------2---2-|
    ||----------------------|--------------|---------------------|--------------|
    
      Bb               Bb5I            E                        D
      Gtr II
      Q.     E  +Q     H.              Q.     E    +Q           Q.      Q     E
      |      |   |     |               |      |     |           |       |     |
      /      /   /     /               /      /     /           /       /     /
                                                        |-3-|
      E  E E E   E E   H.              E  E Q       E   S S S   E  E  E E   E E
    |----------------|----------||-||-------------------------|-----------------|
    |----------------|---------o||-||o------------------------|-----------------|
    |--------------2-|----------||-||-------------------------|-----------------|
    |-0--2-2-0---2---|-3--------||-||--6--7-9-------7---6h7p6-|-4--5--5-4---7-4-|
    |-1------1-------|-1-------o||-||o-7------7---------------|-5-------5-----5-|
    |----------------|----------||-||--0----------------------|-----------------|
    | Q.     Q.                        Q.     Q.                Q.      Q     E
    |
    | Gtr IV
    |                                         ~~~~                          ~
    | W                W               E  E E E    +E   E       E  E  E S S Q
    |----------------|----------||-||-------------------------|-----------------|
    |----------------|---------o||-||o------7-7b9==(7)r-7-----|------/7-7h8-7---|
    |----------------|----------||-||-----9-------------------|----7------------|
    |----------------|----------||-||--9----------------------|-7---------------|
    |----------------|---------o||-||o------------------------|-----------------|
    |----------------|----------||-||-------------------------|-----------------|
    |
    | Gtr III
    |                                         ~~~~                          ~
    | W                W               E  E E E    +E   E       E  E  E S S Q
    |----------------|----------||-||-------------------------|-----------------|
    |----------------|---------o||-||o------------------------|-----------------|
    |----------------|----------||-||---------9----(9)--------|------/7-7h9-7---|
    |----------------|----------||-||--6--7-9-----------9-----|----7------------|
    |----------------|---------o||-||o------------------------|-9---------------|
    |----------------|----------||-||-------------------------|-----------------|
    
                                                                1.
      C                      Bm               Bb                 Bb5I
      Q.       Q.            Q.       Q   E   Q.       E  +Q     H.
      |        |             |        |   |   |        |   |     |
      /        /             /        /   /   /        /   /     /
                     |-3-|
      E  E  Q     E  S S S   E  E E   E E E   E  E E   E   E E   H.
    |----------------------|----------------|------------------|-------------||
    |----------------------|----------------|------------------|------------o||
    |----------------------|----------------|----------------2-|-------------||
    |-2--3--5-----3--2-3p2-|-0--2-2---0-2-0-|-0--2-2---0---2---|-3-----------||
    |-3--------3-----------|-2--------2---2-|-1--------1-------|-1----------o||
    |----------------------|----------------|------------------|-------------||
    | Q.       Q.            Q.       Q   E   Q.       Q.
    |
    |          ~~~           PM---------------------------|
    | E  E  E  Q     E       E  E S S E E E   E  E S S E   E E   Q   Q  E E
    |----------------------|----------------|------------------|-------------||
    |----------5-----------|----------------|------------------|------------o||
    |----5--7--------7-----|----------------|----------------2-|-3---3--3----||
    |-5--------------------|-0--2-2-2-0-2-0-|-0--2-2-2-0---2---|-3---3--3----||
    |----------------------|-2--2-2-2-2-2-2-|-1--1-1-1-1---1---|-1---1--1---o||
    |----------------------|----------------|------------------|-------------||
    |
    |          ~~~           PM PM----| PM|   PM PM----|   PM
    | E  E  E  Q     E       E  E S S E E E   E  E S S E   E E   Q   Q  E E
    |----------------------|----------------|------------------|-------------||
    |----------------------|----------------|------------------|------------o||
    |----------------------|----------------|----------------2-|-3---3--3----||
    |---------10-----------|-0--2-2-2-0-2-0-|-0--2-2-2-0---2---|-3---3--3----||
    |-7--8-10-------10-----|-2--2-2-2-2-2-2-|-1--1-1-1-1---1---|-1---1--1---o||
    |----------------------|----------------|------------------|-------------||
                             Q.       Q   E   Q.       Q.
    
      2.
      Bb5          E                       D               C   Em   C
      Gtrs I, II
                         ~~  ~~~~          PM--------------| PM~~
                                  |-3--|                            |-3-|
      H.            E E  E  +E  E S  S S   E E S S E E E   E E Q  E S S S
    |------------|-----------------------|---------------|-----------------|
    |------------|-----------------------|---------------|-----------------|
    |------------|-----------------------|---------------|-----------------|
    |-3----------|--6-7--9--(9)---6h=7p6-|-4-5-7-7-4-7-4-|-2-3-5--4-2h3p2--|
    |-1----------|--7---11-(11)-7-7------|-5-5-5-5-5-5-5-|-3-3-7--3-3------|
    |------------|--0-0--0------0--------|---------------|-----------------|
    |               E E  Q      E E                        E E Q  E E
    |                             |
    |
    |                    ~~                PM--|   PM--------| ~
    |                             |-3--|                            |-3-|
    | Q   Q  Q      E E  Q      E S  S S   E E S S E E E   E E Q  E S S S
    |------------|-----------------------|---------------|-----------------|
    |------------|-------9--------9h10p9-|-----7-----7---|-----5----5h6p5--|
    |-3---3--3/--|----9------------------|---7---7---7-7-|---5----5--------|
    |-3---3--3/--|--9--------------------|-7-------7---7-|-5---------------|
    |-1---1--1/--|-----------------------|---------------|-----------------|
    |------------|-----------------------|---------------|-----------------|
    |
    |                    ~~                PM--|   PM--------| ~
    |                             |-3--|                            |-3-|
    | Q   Q  Q      E E  Q      E S  S S   E E S S E E E   E E Q  E S S S
    |------------|-----------------------|-----------5---|-----------------|
    |------------|-----------------------|-------7---7-7-|-----------------|
    |-3---3--3/--|-------9--------9h11p9-|-----7---7---7-|-----5----5h7p5--|
    |-3---3--3/--|----9------------------|---7-----------|---5----5--------|
    |-1---1--1/--|-11--------------------|-9-------------|-7---------------|
    |------------|-----------------------|---------------|-----------------|
    
                                                        Faster Q=160
      Bm                    Bb              Bb5              BbA5   BbA5G#5
                                           4/4
                                                        Gtr III
                                            ~~
      E E E     E   E E     E E E   E E E   H.      Q      E E E Q  E E E
    |---------------------|---------------|-------------||-----------------|
    |---5-------5-----5---|-3-------3-----|-3-----------||-----------------|
    |-4-------------4-----|---3-------3-1-|-3-----------||-----------------|
    |-0-2-----0h2-0h2-0h2-|-0-2-----2-2-2-|-3-----------||---8-7----8-7-6--|
    |---------------------|---------------|-------------||---8-7----8-7-6--|
    |---------------------|---------------|-------------||---6-5----6-5-4--|
    | E E E   a E a E S S   E E E   E E E
    |
    | Gtrs III, IV
    | E E S S   E   E E     E E S S E E E   H.      E E    E E E Q  E E E
    |---------------------|---------------|-------------||-----------------|
    |---------------------|---------------|-------------||-----------------|
    |-4-4-4-4---4---4-4---|-3-3-3-3-3-3-3-|-3-------3---||-----------------|
    |-0-2-2-2---0---2-0---|-0-2-2-2-2-2-2-|-3-------3---||---8-7----8-7-6--|
    |-2-2-2-2---2---2-2---|-1-1-1-1-1-1-1-|-1-------1---||---8-7----8-7-6--|
    |---------------------|---------------|-------------||---6-5----6-5-4--|
    
                       Faster Q=168
         BbA5  G5      Bb5      A5
                       PM-----------------
      Q  E E E E Q     E E  E E E E  E E
    |---------------||-------------------|
    |---------------||-------------------|
    |---------------||-3-2------2--------|
    |----8-7-6-5----||-3-2--5-3-2-5--3-2-|
    |----8-7-6-5----||------5-3---5--3-2-|
    |----6-5-4-3----||-------------------|
    |
    | Q  E E E E Q     E Q.     E Q.
    |---------------||-------------------|
    |---------------||-------------------|
    |---------------||-------------------|
    |----8-7-6-5----||-8--------7--------|
    |----8-7-6-5----||-8--------7--------|
    |----6-5-4-3----||-6--------5--------|
    
      G5       F5 E5     F5  E5 D5 C5   E5open(tyD5 2)
     ---------------|                   PM--------------|
      E E  E E  E E Q     Q  Q  Q  Q    E E  E E E E  E E
    |------------------|--------------|-------------------|
    |------------------|--------------|-------------------|
    |------------------|--------------|-------------------|
    |-5-3--2----3-2----|--3--2--------|-2-----------------|
    |-5-3--2-5--3-2----|--3--2--5--3--|-2-5--3-2-5-3--2-0-|
    |--------5---------|--------5--3--|---5--3-2-5-3--2-0-|
    |
    | E Q.      E E Q     Q  Q  Q  Q    E Q.     E Q.
    |------------------|--------------|-------------------|
    |------------------|--------------|-------------------|
    |----------10-9----|-10--9--7--5--|-9--------7--------|
    |-5--------10-9----|-10--9--7--5--|-9--------7--------|
    |-5---------8-7----|--8--7--5--3--|-7--------5--------|
    |-3----------------|--------------|-0-----------------|
    
      E5
      Gtrs III, IV
      W          +W           +W           +W           +W
    |----------|------------|------------|------------|--------|
    |----------|------------|------------|------------|--------|
    |----------|------------|------------|------------|--------|
    |-2--------|-(2)--------|-(2)--------|-(2)--------|-(2)----|
    |-2--------|-(2)--------|-(2)--------|-(2)--------|-(2)----|
    |-0--------|-(0)--------|-(0)--------|-(0)--------|-(0)----|
    
     2/4      4/4                                    2/4      4/4
      +H       +W           +W           +W           +H       +W
    |--------|------------|------------|------------|--------|--------||
    |--------|------------|------------|------------|--------|--------||
    |--------|------------|------------|------------|--------|--------||
    |-(2)----|-(2)--------|-(2)--------|-(2)--------|-(2)----|-(2)----||
    |-(2)----|-(2)--------|-(2)--------|-(2)--------|-(2)----|-(2)----||
    |-(0)----|-(0)--------|-(0)--------|-(0)--------|-(0)----|-(0)----||
    
        Bb5 A5 Bb5 A5                    Bb5 A5
                                        2/4      4/4
        PM|    PM|               ~       PM|               ~
        E E Q  E E Q    E a Q  E Q  Q    E E Q    E a Q  E Q  Q   4x
    ||----------------|----------------|--------|-----------------||
    ||o---------------|----------------|--------|----------------o||
    ||----------------|----------------|--------|-----------------||
    ||--8-8-7--8-8-7--|----------------|-8-8-7--|-----------------||
    ||o-8-8-7--8-8-7--|---5h7--7-5-----|-8-8-7--|---5h7--7-5-----o||
    ||--6-6-5--6-6-5--|-0-----------7--|-6-6-5--|-0-----------7---||
    
      Bb5 A5 Bb5 A5   E5
      Gtr IV
      PM|    PM|
      E E Q  E E Q    E  E      +E    S      +S    S     +E. Q
    |---------------|-------------------------------------------|
    |---------------|---10b12==(10)r-10b12==(10)r-10b12r(10)-8--|
    |---------------|-------------------------------------------|
    |-8-8-7--8-8-7--|-------------------------------------------|
    |-8-8-7--8-8-7--|-------------------------------------------|
    |-6-6-5--6-6-5--|-------------------------------------------|
    |
    | Gtr III
    | PM|    PM|
    | E E Q  E E Q    E  E      +E    S      +S    S     +E. Q
    |---------------|-------------------------------------------|
    |---------------|-------------------------------------------|
    |---------------|---11b12==(11)r-11b12==(11)r-11b12r(11)-9--|
    |-8-8-7--8-8-7--|-------------------------------------------|
    |-8-8-7--8-8-7--|-------------------------------------------|
    |-6-6-5--6-6-5--|-------------------------------------------|
    |
    | Gtr V
    | W               W
    |---------------|-------------------------------------------|
    |---------------|-------------------------------------------|
    |---------------|-------------------------------------------|
    |---------------|-2-----------------------------------------|
    |---------------|-2-----------------------------------------|
    |---------------|-0-----------------------------------------|
    
                  A5
     2/4         4/4
       E   E Q    E  E      +E    S      +S    S     +E. Q
    |-----------|--------------------------------------------|
    |-----------|---10b12==(10)r-10b12==(10)r-10b12r(10)-8---|
    |-11--11-9--|--------------------------------------------|
    |-----------|--------------------------------------------|
    |-----------|--------------------------------------------|
    |-----------|--------------------------------------------|
    |
    |  E   E Q    E  E      +E    S      +S    S     +E. Q
    |-----------|--------------------------------------------|
    |-----------|--------------------------------------------|
    |-----------|---11b12==(11)r-11b12==(11)r-11b12r(11)-9---|
    |-10--10-9--|--------------------------------------------|
    |-----------|--------------------------------------------|
    |-----------|--------------------------------------------|
    |
    | +H          W
    |-----------|--------------------------------------------|
    |-----------|--------------------------------------------|
    |-----------|-2------------------------------------------|
    |-(2)-------|-2------------------------------------------|
    |-(2)-------|-0------------------------------------------|
    |-(0)-------|--------------------------------------------|
    
                          E5
                                                                     2/4
       E   E Q   E E Q    E  E      +E    S      +S    S     +E. Q     E   E Q
    |-------------------|-------------------------------------------|-----------|
    |--7---7-----7-8----|---10b12==(10)r-10b12==(10)r-10b12r(10)-8--|-----------|
    |--------7-------9--|-------------------------------------------|-11--11-9--|
    |-------------------|-------------------------------------------|-----------|
    |-------------------|-------------------------------------------|-----------|
    |-------------------|-------------------------------------------|-----------|
    |
    |  E   E Q   E E Q    E  E      +E    S      +S    S     +E. Q     E   E Q
    |-------------------|-------------------------------------------|-----------|
    |-------------------|-------------------------------------------|-----------|
    |--------------7----|---11b12==(11)r-11b12==(11)r-11b12r(11)-9--|-----------|
    |-10--10-7--10---9--|-------------------------------------------|-10--10-9--|
    |-------------------|-------------------------------------------|-----------|
    |-------------------|-------------------------------------------|-----------|
    |
    | +W                  W                                           +H
    |-------------------|-------------------------------------------|-----------|
    |-------------------|-------------------------------------------|-----------|
    |-(2)---------------|-9-----------------------------------------|-(9)-------|
    |-(2)---------------|-9-----------------------------------------|-(9)-------|
    |-(0)---------------|-7-----------------------------------------|-(7)-------|
    |-------------------|-0-----------------------------------------|-(0)-------|
    
      A5                                                    F5    E5
     4/4
      E  E      +E    S      +S    S     +E. Q     E   E Q   E  E Q
    |-------------------------------------------|----------------------|
    |---10b12==(10)r-10b12==(10)r-10b12r(10)-8--|--7---7---------------|
    |-------------------------------------------|--------7--10-10-9----|
    |-------------------------------------------|----------------------|
    |-------------------------------------------|----------------------|
    |-------------------------------------------|----------------------|
    |
    | E  E      +E    S      +S    S     +E. Q     E   E Q   E  E Q
    |-------------------------------------------|----------------------|
    |-------------------------------------------|----------------------|
    |---11b12==(11)r-11b12==(11)r-11b12r(11)-9--|----------------------|
    |-------------------------------------------|-10--10-7--10-10-9----|
    |-------------------------------------------|----------------------|
    |-------------------------------------------|----------------------|
    |
    | W                                           +H         E  E Q
    |-------------------------------------------|----------------------|
    |-------------------------------------------|----------------------|
    |-2-----------------------------------------|-(2)-------10-10-9----|
    |-2-----------------------------------------|-(2)-------10-10-9----|
    |-0-----------------------------------------|-(0)--------8--8-7----|
    |-------------------------------------------|----------------------|
    
                         Bb5 A5                    Bb5 A5 Bb5 A5
                        2/4      4/4
                 ~       PM|               ~       PM|    PM|
        E a Q  E Q  Q    E E Q    E a Q  E Q  Q    E E Q  E E Q
    ||-----------------|--------|----------------|---------------|
    ||o----------------|--------|----------------|---------------|
    ||-----------------|--------|----------------|---------------|
    ||-----------------|-8-8-7--|----------------|-8-8-7--8-8-7--|
    ||o---5h7--7-5-----|-8-8-7--|---5h7--7-5-----|-8-8-7--8-8-7--|
    ||--0-----------7--|-6-6-5--|-0-----------7--|-6-6-5--6-6-5--|
    
                       Bb5 A5                    Bb5 A5 G5  F#5
                      2/4      4/4
               ~       PM|               ~       PM|    PM|
      E a Q  E Q  Q    E E Q    E a Q  E Q  Q    E E Q  E E Q
    |----------------|--------|----------------|----------------|
    |----------------|--------|----------------|----------------|
    |----------------|--------|----------------|----------------|
    |----------------|-8-8-7--|----------------|-8-8-7--5-5-4---|
    |---5h7--7-5-----|-8-8-7--|---5h7--7-5-----|-8-8-7--5-5-4---|
    |-0-----------7--|-6-6-5--|-0-----------7--|-6-6-5--3-3-2---|
    
        E5                 F5     E5              Bb5 A5 Bb5 A5
                      2/4      4/4
      PM               PM|      PM                PM|    PM|
      E E E E E E Q    E E Q    E E E E E E Q     E E Q  E E Q
    |----------------|--------|-----------------|---------------|
    |----------------|--------|-----------------|---------------|
    |----------------|--------|-----------------|---------------|
    |---2-----2---2--|-----3--|---2-----2---2/--|-8-8-7--8-8-7--|
    |---2---2-2---2--|-2-2-3--|---2---2-2---2/--|-8-8-7--8-8-7--|
    |-0-0---0-0---0--|-0-0-1--|-0-0---0-0---0/--|-6-6-5--6-6-5--|
    
        E5                 F5     E5              Bb5 A5 Bb5
                      2/4      4/4
      PM               PM|      PM                PM|    PM|
      E E E E E E Q    E E Q    E E E E E E Q     E E Q  E E Q
    |----------------|--------|-----------------|----------------||
    |----------------|--------|-----------------|----------------||
    |----------------|--------|-----------------|----------------||
    |---2-----2---2--|-----3--|---2-----2---2/--|-8-8-7--8-8-8--||
    |---2---2-2---2--|-2-2-3--|---2---2-2---2/--|-8-8-7--8-8-8--||
    |-0-0---0-0---0--|-0-0-1--|-0-0---0-0---0/--|-6-6-5--6-6-6--||
    
     1st &2nd Verse
        E5                 F5     E5              Bb5 A5 Bb5 A5
                      2/4      4/4
      PM               PM|      PM                PM|    PM|
      E E E E E E Q    E E Q    E E E E E E Q     E E Q  E E Q
    |----------------|--------|-----------------|---------------|
    |----------------|--------|-----------------|---------------|
    |----------------|--------|-----------------|---------------|
    |---2-----2---2--|-----3--|---2-----2---2/--|-8-8-7--8-8-7--|
    |---2---2-2---2--|-2-2-3--|---2---2-2---2/--|-8-8-7--8-8-7--|
    |-0-0---0-0---0--|-0-0-1--|-0-0---0-0---0/--|-6-6-5--6-6-5--|
    
        E5                 F5     E5              Bb5 A5 Bb5
                      2/4      4/4
      PM               PM|      PM                PM|    PM|
      E E E E E E Q    E E Q    E E E E E E Q     E E Q  E E Q
    |----------------|--------|-----------------|----------------|
    |----------------|--------|-----------------|----------------|
    |----------------|--------|-----------------|----------------|
    |---2-----2---2--|-----3--|---2-----2---2/--|-8-8-7--8-8-8--|
    |---2---2-2---2--|-2-2-3--|---2---2-2---2/--|-8-8-7--8-8-8--|
    |-0-0---0-0---0--|-0-0-1--|-0-0---0-0---0/--|-6-6-5--6-6-6--|
    
        E5                 F5     E5              Bb5 A5 Bb5 A5
                      2/4      4/4
      PM               PM|      PM                PM|    PM|
      E E E E E E Q    E E Q    E E E E E E Q     E E Q  E E Q
    |----------------|--------|-----------------|---------------|
    |----------------|--------|-----------------|---------------|
    |----------------|--------|-----------------|---------------|
    |---2-----2---2--|-----3--|---2-----2---2/--|-8-8-7--8-8-7--|
    |---2---2-2---2--|-2-2-3--|---2---2-2---2/--|-8-8-7--8-8-7--|
    |-0-0---0-0---0--|-0-0-1--|-0-0---0-0---0/--|-6-6-5--6-6-5--|
    
        E5                 F5     E5              Bb5 A5 Bb5
                      2/4      4/4
      PM               PM|      PM                PM|    PM|
      E E E E E E Q    E E Q    E E E E E E Q     E E Q  E E Q
    |----------------|--------|-----------------|----------------|
    |----------------|--------|-----------------|----------------|
    |----------------|--------|-----------------|----------------|
    |---2-----2---2--|-----3--|---2-----2---2/--|-8-8-7--8-8-8--|
    |---2---2-2---2--|-2-2-3--|---2---2-2---2/--|-8-8-7--8-8-8--|
    |-0-0---0-0---0--|-0-0-1--|-0-0---0-0---0/--|-6-6-5--6-6-6--|
    
                        Pre-Chorus
      E         G5       F#5
      PM------------|       PM--------|
      E E E E E E E E    Q  E E E E E E
    |-----------------||----------------|
    |-----------------||----------------|
    |-----------------||----------------|
    |-----------------||-4--------------|
    |-7-7-7-7-7-5-5-5-||-4--4-4-4-4-4-4-|
    |-0-0-0-0-0-3-3-3-||-2--2-2-2-2-2-2-|
    
      G5    F#E5  G5            F#5
                                   PM--------|
      S +S  E E a E +Q   a Q    Q  E E E E E E
    |-------------------------|-----------------|
    |-------------------------|-----------------|
    |-------------------------|-----------------|
    |-5-(5)s4---4s5-(5)--4s5--|-4---------------|
    |-5-(5)s4-2-4s5-(5)--4s5--|-4--4-4-4-4-4-4--|
    |-3-(3)s2-0-2s3-(3)--2s3--|-2--2-2-2-2-2-2--|
    
      G5    F#E5  G5            F#5
                                   PM--------|
      S +S  E E a E +Q   a Q    Q  E E E E E E
    |-------------------------|----------------|
    |-------------------------|----------------|
    |-------------------------|----------------|
    |-5-(5)s4---4s5-(5)--4s5--|-4--------------|
    |-5-(5)s4-2-4s5-(5)--4s5--|-4--4-4-4-4-4-4-|
    |-3-(3)s2-0-2s3-(3)--2s3--|-2--2-2-2-2-2-2-|
    
      G5    F#E5  G5       A5   F#5
                                   PM--------|
      S +S  E E a E +Q   a Q    Q  E E E E E E
    |-------------------------|----------------|
    |-------------------------|----------------|
    |-------------------------|----------------|
    |-5-(5)s4---4s5-(5)--5s7--|-4--------------|
    |-5-(5)s4-2-4s5-(5)--5s7--|-4--4-4-4-4-4-4-|
    |-3-(3)s2-0-2s3-(3)--3s5--|-2--2-2-2-2-2-2-|
    
                                F#5
                                   PM--------|
      |-3-| |-3-| |-3-| |-3-|
      E E E E E E E E E E E E   Q  E E E E E E
    |-------------------------|----------------|
    |-------------------------|----------------|
    |-0h5h7-------------------|----------------|
    |-------0h5h7-------------|-4--------------|
    |-------------0h5h7-0h2h3-|-4--4-4-4-4-4-4-|
    |-------------------------|-2--2-2-2-2-2-2-|
    
      G5    F#E5  G5            F#5
                                   PM--------|
      S +S  E E a E +Q   a Q    Q  E E E E E E
    |-------------------------|------------------|
    |-------------------------|------------------|
    |-------------------------|------------------|
    |-5-(5)s4---4s5-(5)--4s5--|-4----------------|
    |-5-(5)s4-2-4s5-(5)--4s5--|-4--4-4-4-4-4-4---|
    |-3-(3)s2-0-2s3-(3)--2s3--|-2--2-2-2-2-2-2---|
    
      G5    F#E5  G5            F#5
                                   PM--------|
      S +S  E E a E +Q   a Q    Q  E E E E E E
    |-------------------------|----------------|
    |-------------------------|----------------|
    |-------------------------|----------------|
    |-5-(5)s4---4s5-(5)--4s5--|-4--------------|
    |-5-(5)s4-2-4s5-(5)--4s5--|-4--4-4-4-4-4-4-|
    |-3-(3)s2-0-2s3-(3)--2s3--|-2--2-2-2-2-2-2-|
    
      G5    F#E5  G5       A5   F#5
                                   PM--------|
      S +S  E E a E +Q   a Q    Q  E E E E E E
    |-------------------------|----------------|
    |-------------------------|----------------|
    |-------------------------|----------------|
    |-5-(5)s4---4s5-(5)--5s7--|-4--------------|
    |-5-(5)s4-2-4s5-(5)--5s7--|-4--4-4-4-4-4-4-|
    |-3-(3)s2-0-2s3-(3)--3s5--|-2--2-2-2-2-2-2-|
    
      |-3-| |-3-| |-3-| |-3-|   |-3-| |-3-| |-3-| |-3-|
      E E E E E E E E E E E E   E E E E E E E E E E E E
    |-------------------------|-------------------------|
    |-------------------------|-------------------------|
    |-0h5h7-------------------|-0h5h7-------------------|
    |-------0h5h7-------------|-------0h5h7-------------|
    |-------------0h5h7-0h2h3-|-------------0h5h7-0h2h3-|
    |-------------------------|-------------------------|
    
      E5               Csus4 Bsus4 Csus4
         PM--------|
      Q  E E E E E E   S +S  E E a E +Q   a Q
    |----------------|--------------------------||
    |----------------|--------------------------||
    |----------------|-5-(5)s4---4s5-(5)--4s5---||
    |-2--------------|-3-(3)s2-0-2s3-(3)--2s3---||
    |-2--2-2-2-2-2-2-|-3-(3)s2-0-2s3-(3)--2s3---||
    |-0--0-0-0-0-0-0-|--------------------------||
    
     Chorus
      A5         B5         C5        F5   E5
                                              PM--------|
      W          W          H    +Q   Q    Q  E E E E E E
    |----------|----------|--------------|----------------|
    |----------|----------|--------------|----------------|
    |-2--------|-4--------|-5----(5)-----|----------------|
    |-2--------|-4--------|-5----(5)--3--|-2--------------|
    |-0--------|-2--------|-3----(3)--3--|-2--2-2-2-2-2-2-|
    |----------|----------|-----------1--|-0--0-0-0-0-0-0-|
    
      Csus4 Bsus4 Csus4         A5         B5      F5   E5
                                                           PM--------|
      S +S  E E a E +Q   a Q    W          H.      Q    Q  E E E E E E
    |-------------------------|----------|------------|-----------------|
    |-------------------------|----------|------------|-----------------|
    |-5-(5)s4---4s5-(5)--4s5--|-2--------|-4----------|-----------------|
    |-3-(3)s2-0-2s3-(3)--2s3--|-2--------|-4-------3--|-2---------------|
    |-3-(3)s2-0-2s3-(3)--2s3--|-0--------|-2-------3--|-2--2-2-2-2-2-2--|
    |-------------------------|----------|---------1--|-0--0-0-0-0-0-0--|
    
      Csus4 Bsus4 Csus4         A5         B5         G5
      S +S  E E a E +Q   a Q    W          W          W
    |-------------------------|----------|----------|------|
    |-------------------------|----------|----------|-3----|
    |-5-(5)s4---4s5-(5)--4s5--|-2--------|-4--------|------|
    |-3-(3)s2-0-2s3-(3)--2s3--|-2--------|-4--------|-5----|
    |-3-(3)s2-0-2s3-(3)--2s3--|-0--------|-2--------|-5----|
    |-------------------------|----------|----------|-3----|
    
                1.                              2.
      C5         F5
                               PM|    PM|
      W          H.      Q     E E Q  E E Q      H.      Q
    |----------|-------------|----------------||-------------|
    |----------|-------------|---------------o||-------------|
    |-5--------|-------------|----------------||-------------|
    |-5--------|-3-----------|-8-8-7--8-8-7---||-3-----------|
    |-3--------|-3-------3/--|-8-8-7--8-8-7--o||-3-------3/--|
    |----------|-1-------1/--|-6-6-5--6-6-5---||-1-------1/--|
    
                                        2/4      4/4
        PM|    PM|               ~       PM|               ~
        E E Q  E E Q    E a Q  E Q  Q    E E Q    E a Q  E Q  Q
    ||----------------|----------------|--------|-----------------||
    ||o---------------|----------------|--------|----------------o||
    ||----------------|----------------|--------|-----------------||
    ||--8-8-7--8-8-7--|----------------|-8-8-7--|-----------------||
    ||o-8-8-7--8-8-7--|---5h7--7-5-----|-8-8-7--|---5h7--7-5-----o||
    ||--6-6-5--6-6-5--|-0-----------7--|-6-6-5--|-0-----------7---||
    
                                                 PM--------------|
            |-3-|      |-3-|
      Q  Q  Q Q Q   Q  Q Q Q Q    E E E E H      E E  E E E E  E E
    |-------------|-------------|--------------|-------------------|
    |-------------|-------------|--------------|-------------------|
    |-------------|-------------|--------------|-3-2------2--------|
    |-8-----8-7---|----8-7-6----|-8-7-6-5------|-3-2--5-3-2-5--3-2-|
    |-8-----8-7---|----8-7-6----|-8-7-6-5------|------5-3---5--3-2-|
    |-6-----6-5---|----6-5-4----|-6-5-4-3------|-------------------|
    |
    | Gtr III
    |       |-3-|      |-3-|
    | Q  Q  Q Q Q   Q  Q Q Q Q    E E E E H      E Q.     E Q.
    |-------------|-------------|--------------|-------------------|
    |-------------|-------------|--------------|-------------------|
    |-------------|-------------|--------------|-------------------|
    |-8-----8-7---|----8-7-6----|-8-7-6-5------|-8--------7--------|
    |-8-----8-7---|----8-7-6----|-8-7-6-5------|-8--------7--------|
    |-6-----6-5---|----6-5-4----|-6-5-4-3------|-6--------5--------|
    
      G5       F5 E5     F5  E5 D5 C5   E5open(tyD5 2)
      PM------------|                   PM--------------|
      E E  E E  E E Q     Q  Q  Q  Q    E E  E E E E  E E
    |------------------|--------------|-------------------|
    |------------------|--------------|-------------------|
    |------------------|--------------|-------------------|
    |-5-3--2----3-2----|--3--2--------|-2-----------------|
    |-5-3--2-5--3-2----|--3--2--5--3--|-2-5--3-2-5-3--2-0-|
    |--------5---------|--------5--3--|---5--3-2-5-3--2-0-|
    |
    | E Q.      E E Q     Q  Q  Q  Q    E Q.     E Q.
    |------------------|--------------|-------------------|
    |------------------|--------------|-------------------|
    |----------10-9----|-10--9--7--5--|-9--------7--------|
    |-5--------10-9----|-10--9--7--5--|-9--------7--------|
    |-5---------8-7----|--8--7--5--3--|-7--------5--------|
    |-3----------------|--------------|-0-----------------|
    
      E5
                 |-3-| |-3-| |-3-| |-3-|
      W          E E E E E E E E E E E E
    |----------|---------------------------|
    |----------|---------------------------|
    |----------|-------------------0h5h7---|
    |-2--------|-------------0h5h7---------|
    |-2--------|-0h2h3-0h5h7---------------|
    |-0--------|---------------------------|
    |
    | W          W
    |----------|---------------------------|
    |----------|---------------------------|
    |-9--------|---------------------------|
    |-9--------|---------------------------|
    |-7--------|---------------------------|
    |-0--------|---------------------------|
    
     Solo 1
      E5                   Csus4  Bsus4 Csus4
      Gtr IV
       Q.    E +Q    Q     Q.           Q     +E    Q
    |--------------------|-----------------------------|
    |----------------8---|-7---------------------------|
    |--------9-(9)-------|--------------9-----(9)---7--|
    |-/9-----------------|-----------------------------|
    |--------------------|-----------------------------|
    |--------------------|-----------------------------|
    |
    | Gtr III
    |      PM----------|
    |  Q   E E  E  E E E   S  +S  E E a E +Q      a Q
    |--------------------|-----------------------------|
    |--------------------|-----------------------------|
    |--------------------|-5--(5)s4---4s5-(5)-----4s5--|
    |--2-----------------|-3--(3)s2-0-2s3-(3)-----2s3--|
    |--2---2-2--2--2-2-2-|-3--(3)s2-0-2s3-(3)-----2s3--|
    |--0---0-0--0--0-0-0-|-----------------------------|
    
      E5                 Csus4 Bsus4 Csus4
           ~                                   ~~
                                        |-3--|
      Q  E Q   E S S E   E     E E   E  S  S S Q.
    |------------------|-------------------------------|
    |------------------|-------------------------------|
    |-5--4-4---4-5p4---|-4-----------------------------|
    |----------------7-|-------7-5---3--3h=5p3s2-------|
    |------------------|-------------------------------|
    |------------------|-------------------------------|
    |
    |    PM----------|
    | Q  E E E E E   E   S +S  E E a E +Q         a Q
    |------------------|-------------------------------|
    |------------------|-------------------------------|
    |------------------|-5-(5)s4---4s5-(5)--------4s5--|
    |-2----------------|-3-(3)s2-0-2s3-(3)--------2s3--|
    |-2--2-2-2-2-2---2-|-3-(3)s2-0-2s3-(3)--------2s3--|
    |-0--0-0-0-0-0---0-|-------------------------------|
    
      E5                   Csus4  Bsus4 Csus4
       Q.    E +Q    Q     Q.           Q     +E    Q
    |--------------------|-----------------------------|
    |----------------8---|-7---------------------------|
    |--------9-(9)-------|--------------9-----(9)---7--|
    |-/9-----------------|-----------------------------|
    |--------------------|-----------------------------|
    |--------------------|-----------------------------|
    |
    |      PM----------|
    |  Q   E E  E  E E E   S  +S  E E a E +Q      a Q
    |--------------------|-----------------------------|
    |--------------------|-----------------------------|
    |--------------------|-5--(5)s4---4s5-(5)-----5s7--|
    |--2-----------------|-3--(3)s2-0-2s3-(3)-----3s5--|
    |--2---2-2--2--2-2-2-|-3--(3)s2-0-2s3-(3)-----3s5--|
    |--0---0-0--0--0-0-0-|-----------------------------|
    
      E5
           ~
      Q  E Q   E S S E   E   E   Q     H
    |------------------|---------------------------|
    |------------------|---------------------------|
    |-5--4-4---4-5p4---|---------------------------|
    |----------------5-|-2s==3---------------------|
    |------------------|---------------------------|
    |------------------|---------------------------|
    |
    |    PM----------|
    |                    |--3--| |-3-| |-3-| |-3-|
    | Q  E E E E E   E   E E   E E E E E E E E E E
    |------------------|---------------------------|
    |------------------|---------------------------|
    |------------------|-0h5h==7-------------------|
    |-2----------------|---------0h5h7-------------|
    |-2--2-2-2-2-2---2-|---------------0h5h7-0h2h3-|
    |-0--0-0-0-0-0---0-|---------------------------|
    
      E5                   Csus4  Bsus4 Csus4
       Q.    E +Q    Q     Q.           E +E   S S   Q
    |--------------------|------------------------------|
    |----------------8---|-7----------------------------|
    |--------9-(9)-------|--------------9-(9)h11p9s==5--|
    |-/9-----------------|------------------------------|
    |--------------------|------------------------------|
    |--------------------|------------------------------|
    |
    |      PM----------|
    |  Q   E E  E  E E E   S  +S  E E a E +Q       a Q
    |--------------------|------------------------------|
    |--------------------|------------------------------|
    |--------------------|-5--(5)s4---4s5-(5)------4s5--|
    |--2-----------------|-3--(3)s2-0-2s3-(3)------2s3--|
    |--2---2-2--2--2-2-2-|-3--(3)s2-0-2s3-(3)------2s3--|
    |--0---0-0--0--0-0-0-|------------------------------|
    
      E5                      Csus4  Bsus4 Csus4
       Q.    E +Q    a  Q     Q.           E +E  S S   Q
    |-----------------------|-----------------------------|
    |----------------8h10---|-8------------7-(7)h8p7s==5--|
    |--------9-(9)----------|-----------------------------|
    |-/9--------------------|-----------------------------|
    |-----------------------|-----------------------------|
    |-----------------------|-----------------------------|
    |
    |      PM-------------|
    |  Q   E E  E  E    E E   S  +S  E E a E +Q      a Q
    |-----------------------|-----------------------------|
    |-----------------------|-----------------------------|
    |-----------------------|-5--(5)s4---4s5-(5)-----4s5--|
    |--2--------------------|-3--(3)s2-0-2s3-(3)-----2s3--|
    |--2---2-2--2--2----2-2-|-3--(3)s2-0-2s3-(3)-----2s3--|
    |--0---0-0--0--0----0-0-|-----------------------------|
    
      E5                     Csus4     Bsus4       Csus4
                              |----3-----|  |---3----|               |-3-|
       Q.    E +Q      Q      E      E   E  E  E     E  S   S S S    E E E
    |----------------------|-----------------------------------------------|
    |----------------/12---|-12p====10p==8-12p10p====8-12p=10p8s7---10p8p7-|
    |--------9-(9)---------|-----------------------------------------------|
    |-/9-------------------|-----------------------------------------------|
    |----------------------|-----------------------------------------------|
    |----------------------|-----------------------------------------------|
    |
    |      PM------------|
    |  Q   E E  E  E   E E    S +S     E    E    a E   +Q         a  Q
    |----------------------|-----------------------------------------------|
    |----------------------|-----------------------------------------------|
    |----------------------|--5-(5)s===4---------4s5---(5)--------5s=7-----|
    |--2-------------------|--3-(3)s===2----0----2s3---(3)--------3s=5-----|
    |--2---2-2--2--2---2-2-|--3-(3)s===2----0----2s3---(3)--------3s=5-----|
    |--0---0-0--0--0---0-0-|-----------------------------------------------|
    
      E5
       |-3-|  |--3--|          |--3--|   |-3-| |-3-| |-3-| |-3-|
       E E E  E E   E  S S S S E E   E   E E E E E E E E E E E E
    |----------------------------------|----------------------------|
    |----------------------------------|----------------------------|
    |-11p9p7-11p9p==7-11p9p7s5-9p7p==5-|-0h5h7----------------------|
    |----------------------------------|-------0h5h7----------------|
    |----------------------------------|-------------0h5h7-0h2h3----|
    |----------------------------------|----------------------------|
    |
    |         PM-------------------|
    |                                    |-3-| |-3-| |-3-| |-3-|
    |  Q      E   E    E   E   E   E     E E E E E E E E E E E E
    |----------------------------------|----------------------------|
    |----------------------------------|----------------------------|
    |----------------------------------|-0h5h7----------------------|
    |--2-------------------------------|-------0h5h7----------------|
    |--2------2---2----2---2---2---2---|-------------0h5h7-0h2h3----|
    |--0------0---0----0---0---0---0---|----------------------------|
    
                                C5  B5 C5  B5
                                PM|    PM|
      |-3-| |-3-| |-3-| |-3-|
      E E E E E E E E E E E E   E E Q  E E Q
    |-------------------------|---------------||
    |-------------------------|---------------||
    |-0h5h7-------------------|-5-5-4--5-5-4--||
    |-------0h5h7-------------|-5-5-4--5-5-4--||
    |-------------0h5h7-0h2h3-|-3-3-2--3-3-2--||
    |-------------------------|---------------||
    |
    |                           PM|    PM|
    | |-3-| |-3-| |-3-| |-3-|
    | E E E E E E E E E E E E   E E Q  E E Q
    |-------------------------|---------------||
    |-------------------------|---------------||
    |-0h5h7-------------------|-5-5-4--5-5-4--||
    |-------0h5h7-------------|-5-5-4--5-5-4--||
    |-------------0h5h7-0h2h3-|-3-3-2--3-3-2--||
    |-------------------------|---------------||
    
     Solo2
      E5     F#5     E5 F#5                 E5    F#5G5
                                           2/4
       E      +E   E  E  +E   E  E  E        +E    E  E  E
    |-------------------------------------|-------14----17b19==|
    |-17-----(17)----14-(14)--------------|----------14--------|
    |-16b18==(16)r---14-(14)----14-16b18==|=(16)r--------------|
    |------------------------16-----------|--------------------|
    |-------------------------------------|--------------------|
    |-------------------------------------|--------------------|
    |
    |  E       E   E  E   E   E  Q            E    E  Q
    |-------------------------------------|--------------------|
    |-------------------------------------|--------------------|
    |-------------------------------------|--------------------|
    |----------4----------4------4--------|--------4--5--------|
    |--2-------4------2---4------4--------|---2----4--5--------|
    |--0-------2------0---2------2--------|---0----2--3--------|
    
      E5   F#5     E5 F#5            E5                  G5
     4/4                                    2/4
       +E   +E   E  E  S  S  S  S  E  S  S    S  S  S  S  S  S  S  S
    |-(17)r(17)-17-14-17p14-17p14----19p14-|-20p14-20p14----19p14-17-|
    |-----------------------------17-------|-------------17----------|
    |--------------------------------------|-------------------------|
    |--------------------------------------|-------------------------|
    |--------------------------------------|-------------------------|
    |--------------------------------------|-------------------------|
    |
    |                                         PM---|
    |   E    E   E  E  Q           E  E       E     E     Q
    |--------------------------------------|-------------------------|
    |--------------------------------------|-------------------------|
    |--------------------------------------|-------------------------|
    |--------4---------4-------------------|--------------5----------|
    |---2----4------2--4-----------4--2----|--------------5----------|
    |---0----2------0--2-----------2--0----|--0-----0-----3----------|
    
      E5    F#5      E5 F#5                  E5     F#5   G5
     4/4                                    2/4
       S  S  S  S  E  E  E      +E    E  E    E      +E    E      +E
    |-17p14-17p14----14-14-----(14)--------|---------------------------|
    |-------------17----17b19==(17)r----14-|-16b17==(16)r-16b17==(16)r-|
    |-----------------------------------14-|-16b17==(16)r-16b17==(16)r-|
    |--------------------------------16----|---------------------------|
    |--------------------------------------|---------------------------|
    |--------------------------------------|---------------------------|
    |
    |  E     E     E  E  E       E    Q       E       E    Q
    |--------------------------------------|---------------------------|
    |--------------------------------------|---------------------------|
    |--------------------------------------|---------------------------|
    |--------4-----------4------------4----|----------4----5-----------|
    |--2-----4--------2--4------------4----|--2-------4----5-----------|
    |--0-----2--------0--2------------2----|--0-------2----3-----------|
    
      E5          F#5     E5 F#5                       C5      B5        C5     B5
     4/4
                                                   ~~                      ~~~~~~~~~~~
       S      +S   +E   E  E  S        +S    E  E  E    +E   E  E  E      +Q     +Q
    |------------------------------------------------|---------------------------------|
    |-16b17==(16)r(16)-14h16-14b14.5==(14)r----16-14-|-(14)----14-17-----(17)---(17)---|
    |-16b18==(16)r(16)-14----14b14.5==(14)r----16-14-|-(14)----14-16b18==(16)---(16)r--|
    |---------------------------------------16-------|------16-------------------------|
    |------------------------------------------------|---------------------------------|
    |------------------------------------------------|---------------------------------|
    |
    |                                                    PM-|              PM-|
    |  E            E   E  E  E              E  Q        E   E  Q          E  E   Q
    |------------------------------------------------|---------------------------------|
    |------------------------------------------------|---------------------------------|
    |------------------------------------------------|---5---5--4----------5--5---4----|
    |---------------4---------4-----------------4----|---5---5--4----------5--5---4----|
    |--2------------4------2--4-----------------4----|---3---3--2----------3--3---2----|
    |--0------------2------0--2-----------------2----|---------------------------------|
    
      E5           F#5      E5              F#5                                 E5    F#5G5
                                                                               2/4
       S      +S    S  S  E  T      +T    S  S  S  S  S  S  S  T      +T    S    S  S  E  E  E
    |---------------------------------------------17p14-----------------------|-----------------|
    |-14-----(14)--14-17p14--------------14-17p14-------17p14--------------14-|-17p14-----------|
    |-16b18==(16)r----------16b18==(16)r----------------------16b18==(16)r----|-------16-14-----|
    |-------------------------------------------------------------------------|-------------16--|
    |-------------------------------------------------------------------------|-----------------|
    |-------------------------------------------------------------------------|-----------------|
    |
    |  E            E     E  E               E     E     Q                       E     E  Q
    |-------------------------------------------------------------------------|-----------------|
    |-------------------------------------------------------------------------|-----------------|
    |-------------------------------------------------------------------------|-----------------|
    |---------------4------------------------4-----------4--------------------|--------4--5-----|
    |--2------------4--------2---------------4-----------4--------------------|--2-----4--5-----|
    |--0------------2--------0---------------2-----------2--------------------|--0-----2--3-----|
    
      E5 F#5   E5 F#5              E5                 G5
     4/4                                  2/4
       E  E  E  E  S     +S   E  E  E       +S   S  E  E     +S   S
    |------------------------------------|--------------------------|
    |-------14h17-17b19r(17)p14-17-17b19r|=(17)p14h17-17b19r(17)p14h|
    |-14-16------------------------------|--------------------------|
    |------------------------------------|--------------------------|
    |------------------------------------|--------------------------|
    |------------------------------------|--------------------------|
    |
    |                                        PM----|
    |  E  E  E  E  Q             E  E        E      E  Q
    |------------------------------------|--------------------------|
    |------------------------------------|--------------------------|
    |------------------------------------|--------------------------|
    |-----4--------4---------------------|-------------5------------|
    |--2--4-----2--4-------------4--2----|-------------5------------|
    |--0--2-----0--2-------------2--0----|---0------0--3------------|
    
      E5 F#5              E5 F#5                       E5   F#5   G5
     4/4                                              2/4
    
    Узнай ВСЕ о своем друге в ВК или FB
    ~~~~~~~~~ E E +S +S E E. +E. E +E +E S S E |------------------------17b19====(17)r---17b18==|=(17)-(17)r-----------| |-17-17b19==(17)r(17)-14-------------------------|----------------------| |------------------------------------------------|------------16p14h16--| |------------------------------------------------|----------------------| |------------------------------------------------|----------------------| |------------------------------------------------|----------------------| | | E E E E E E Q E E Q |------------------------------------------------|----------------------| |------------------------------------------------|----------------------| |------------------------------------------------|----------------------| |-----4-------------------4-------------4--------|--------4----5--------| |--2--4----------------2--4-------------4--------|---2----4----5--------| |--0--2----------------0--2-------------2--------|---0----2----3--------| E5 F#5 C5 B5 C5 B5 4/4 ~~~~~~~~~~~~ E +E E E E E E E E +E E E +H |------------------------------------|------------------------------| |------------------------------------|------------17b19==(17)r------| |-16b17==(16)r-16b18==16-16-16-16-16-|-16r(16)-14-------------------| |------------------------------------|------------------------------| |------------------------------------|------------------------------| |------------------------------------|------------------------------| | | PM| PM--| | E E E E E E Q E E Q E E Q |------------------------------------|------------------------------| |------------------------------------|------------------------------| |------------------------------------|--5---5---4----------5---5-4--| |----------4--------------4-----4----|--5---5---4----------5---5-4--| |--2-------4-----------2--4-----4----|--3---3---2----------3---3-2--| |--0-------2-----------0--2-----2----|------------------------------| E D5 G5 E D5 G5 T T S S S T T S S S T T S S S T T S S S T T S S S T T S S S T T S S S T T S S S |-22p19p0-0-0-21p17p0-0-0-18p15p0-0-0-17p14p0-0-0-|-22p19p0-0-0-21p17p0-0-0-18p15p0-0-0-17p14p0-0-0----| |-------------------------------------------------|----------------------------------------------------| |-------------------------------------------------|----------------------------------------------------| |-------------------------------------------------|----------------------------------------------------| |-------------------------------------------------|----------------------------------------------------| |-------------------------------------------------|----------------------------------------------------| | | E E E E E E E E E E E E E E E E |-------------------------------------------------|----------------------------------------------------| |-------------------------------------------------|----------------------------------------------------| |-------------------------------------------------|----------------------------------------------------| |---------------------------------7----7----------|---------------------------------7----7-------------| |--7------7----7------7----7------5----5------5---|--7------7----7------7----7------5----5------5------| |--0------0----0------0----0------------------3---|--0------0----0------0----0------------------3------| E D5 E5 E C5 F5 S S S S S S S S S S S S S S S S |-19p0-17p0-15p0-14p0-17p0-15p0-14p0-12p0-| |-----------------------------------------| |-----------------------------------------| |-----------------------------------------| |-----------------------------------------| |-----------------------------------------| | | E E E E E E E E |-----------------------------------------| |-----------------------------------------| |-----------------------------------------| |-------7----7--------------5----5--------| |--7----5----5----2----7----3----3----3---| |--0--------------0----0--------------1---| E E5 E B5 G5 7 | |-3-| |-3-| |-3-| |-3-| S S S S S S S S S S S S S S S S S S S S H +H |-15p0-14p0-12p0-10p0-10p8p7--------10p8p7--------|-------------------| |----------------------------10p8p7--------10p8p0-|-<5>------(<5>)----| |-------------------------------------------------|-<5>------(<5>)----| |-------------------------------------------------|-------------------| |-------------------------------------------------|-------------------| |-------------------------------------------------|-------------------| | | E E E E E E E E E Q. H |-------------------------------------------------|-------------------| |-------------------------------------------------|-------------------| |-------------------------------------------------|-------------------| |-----------------------------4------4------------|--5----------------| |--7----4----4----2----7------2------2------5-----|--5----------------| |--0--------------0----0--------------------3-----|--3----------------| Interlude E5 E5 F5 E5 Bb5 A5 Bb5 A5 2/4 4/4 Gtrs III, IV PM PM| PM| PM PM| PM| PM| E E E E q Q E E Q E E E E q Q E E Q E E Q 4x ||----------------|--------|----------------|-----------------|| ||o---------------|--------|----------------|----------------o|| ||----------------|--------|----------------|-----------------|| ||----2-----2--2--|-----3--|---2-----2--2/--|-----7------7----|| ||o---2-----2--2--|-----3--|---2-----2--2/--|-8-8-7--8-8-7---o|| ||--0-0-0-0-0--0--|-0-0-1--|-0-0-0-0-0--0/--|-6-6-5--6-6-5----|| H.=H Q=104 A5 G5 A5 G5 G5 F#5G5 F#5 G5 F#5G5 F#5 F5 3/4 PM| PM| PM| PM| PM| PM| PM------| E E Q E E Q E E Q E E Q E E Q E E Q E E E E E E |---------------|---------------|---------------|--------------| |---------------|---------------|---------------|--------------| |---------------|---------------|---------------|--------------| |-----5------5--|-----4------4--|---------------|-3------------| |-7-7-5--7-7-5--|-5-5-4--5-5-4--|-5-5-4--5-5-4--|-3-3-3-3-3-3--| |-5-5-3--5-5-3--|-3-3-2--3-3-2--|-3-3-2--3-3-2--|-1-1-1-1-1-1--| Moderately Slow Q=100 E5 Gtr IV PM| PM------------- |-3-| E E Q E S S S E E S S E E E |----------------|---------------| |----------------|---------------| |----------------|---------------| |-6-7-9--7-6h7p6-|-4-5-5-5-4-7-4-| |----------------|---------------| |----------------|---------------| | | Gtr III | PM PM PM------------- | E E Q E E E E E E E E |----------------|---------------| |----------------|---------------| |-----9----------|---------------| |-9-9-9--9-------|---------------| |-7-7-7--7-------|-5-5-5---5-5-5-| |-0-0-0--0-------|---------------| C5 ---| PM----------------------| |-3-| E E Q E S S S E E S S E E E E E E E E E |----------------|---------------|--------------| |----------------|---------------|--------------| |----------------|---------------|-----------2--| |-2-3-5--3-2h3p2-|-0-2-2-2-0-2-0-|-0-2-2-0-2----| |----------------|---------------|--------------| |----------------|---------------|--------------| | |---| PM----------------------------------| | E E Q E E E E E E E E E E E E E E |----------------|---------------|--------------| |----------------|---------------|--------------| |-----5----------|---------------|--------------| |-----5----------|---------------|--------------| |-3-3-3--3-------|-2-2-2---2-2-2-|-1-1-1-1-1-1--| |----------3-----|---------------|--------------| Bb E5 C5 PM| ~ PM----------------| ~ |-3-| |-3-| H Q E E Q E S S S E E S S E E E E E Q E S S S |----------|----------------|---------------|-----------------| |----------|----------------|---------------|-----------------| |-3--------|----------------|---------------|-----------------| |-3--------|-6-7-9--7-6h7p6-|-4-5-5-5-4-7-4-|-2-3-5--3-2h3p2--| |-1----2/--|----------------|---------------|-----------------| |----------|----------------|---------------|-----------------| | | PM PM PM----------------| PM| | H Q E E Q E E E E E E E E E E Q E E |----------|----------------|---------------|-----------------| |-3--------|----------------|---------------|-----------------| |-3--------|-----9----------|---------------|-----5-----------| |-3--------|-9-9-9--9-------|---------------|-----5-----------| |-1--------|-7-7-7--7-------|-5-5-5---5-5-5-|-3-3-3--3--------| |------2/--|-0-0-0--0-------|---------------|----------3------| Bb E5 PM----------------------| PM| ~ |-3-| E E S S E E E E E E E E E H. E E Q E S S S |---------------|-------------|---------|-----------------| |---------------|-------------|---------|-----------------| |---------------|-----------2-|-3-------|-----------------| |-0-2-2-2-0-2-0-|-0-2-2-0-2---|-3-------|-6-7-9---7-6h7p6-| |---------------|-------------|---------|-----------------| |---------------|-------------|---------|-----------------| | | PM----------------------| ~ | E E E E E E E E E E E E H. E E E Q E |---------------|-------------|---------|-----------------| |---------------|-------------|-3-------|-----9-----------| |---------------|-------------|-3-------|---9---9---------| |---------------|-------------|-3-------|-9---------9-----| |-2-2-2---2-2-2-|-1-1-1-1-1-1-|-1-------|-----------------| |---------------|-------------|---------|-----------------| | | Gtr V | PM PM | W W H. E E Q E E |---------------|-------------|---------|-----------------| |---------------|-------------|-3-------|-----------------| |---------------|-------------|---------|-----9-----------| |---------------|-------------|---------|-9-9-9---9-------| |---------------|-------------|---------|-7-7-7---7-------| |---------------|-------------|---------|-0-0-0---0-------| C5 PM------------------| ~ PM----------------------| |-3-| E E S S E E E E E Q E S S S E E S S E E E E E E E E E |-----------------|-----------------|---------------|---------------| |-----------------|-----------------|---------------|---------------| |-----------------|-----------------|---------------|-------------2-| |-4-5-5-5-4---7-4-|-2-3-5---3-2h3p2-|-0-2-2-2-0-2-0-|-0-2-2-0-2-----| |-----------------|-----------------|---------------|---------------| |-----------------|-----------------|---------------|---------------| | | ~ ~ | E E E S S Q E E E Q E E E E E Q E E E E E a E |-----------------|-----------------|---------------|---------------| |-----------------|-----5-----------|---5-5---5-5---|-3-----3-------| |---7-7---7-9-7---|---5---5---------|-----4-----4---|---3-3---3-3s5-| |-7---------------|-5---------5-----|-2-------------|---------------| |-----------------|-----------------|---------------|---------------| |-----------------|-----------------|---------------|---------------| | | PM------------------| PM------------------------------------| | E E E E E E E E Q E E E E E E E E E E E E E E |-----------------|-----------------|---------------|---------------| |-----------------|-----------------|---------------|---------------| |-----------------|-----5-----------|---------------|---------------| |-----------------|-----5-----------|---------------|---------------| |-5-5-5---5---5-5-|-3-3-3---3-------|-2-2-2---2-2-2-|-1-1-1-1-1---1-| |-----------------|-----------3-----|---------------|---------------| Bb E5 C5 ~~ ~ ~ ~~ H. E E E Q E E E E S S Q E E E a Q E |---------||------------------|---------------|------------------| |-6-------||o----------9------|-----7-7h8-7---|------------------| |-7-------||------9-11-----11-|---7-----------|---5--7-7s=9------| |---------||---9--------------|-7-------------|-5--------------7-| |---------||o-----------------|---------------|------------------| |---------||------------------|---------------|------------------| | | ~~ ~ ~ ~~ | H. E E E Q E E E E S S Q E E E Q E |---------||------------------|---------------|------------------| |-3-------||o-----------------|---------------|------------------| |-3-------||-----------9------|-----7-7h9-7---|------------------| |---------||---------9------9-|---7-----------|----------10------| |---------||o-11-12-----------|-9-------------|-7-8-10--------10-| |---------||------------------|---------------|------------------| | | PM PM PM----------------| PM| | H. E E Q E E E E E E E E E E Q E E |---------||------------------|---------------|------------------| |-3-------||o-----------------|---------------|------------------| |-3-------||---------9--------|---------------|------5-----------| |-3-------||---9--9--9---9----|---------------|------5-----------| |-1-------||o--7--7--7---7----|-5-5-5-5---5-5-|-3-3--3------3----| |---------||---0--0--0---0----|---------------|----------------3-| Fsus4 ~~ E E Q E E E E Q E a E a H. |---------------------|---------------|----------|| |-------------------5-|---------------|---------o|| |-4----4--------4-----|-3---3---3-3s5-|-5s7------|| |---2-----------------|---2-----------|----------|| |---------------------|---------------|---------o|| |---------------------|---------------|----------|| | | ~~ | E E +E a E a E a E E E E E E a E H. |---------------------|---------------|----------|| |---------------------|---------------|---------o|| |---------------------|---------------|----------|| |-0-2-(2)-0h2-0h2-0h2-|-0-2-2-0-2-7s8-|----------|| |---------------------|---------------|---8-----o|| |---------------------|---------------|----------|| | | PM--------------------------------| | E E E E E E E E E E E E H. |---------------------|---------------|----------|| |---------------------|---------------|---------o|| |---------------------|---------------|---3------|| |---------------------|---------------|---3------|| |-2-2--2----2---2---2-|-1-1-1-1-1---1-|---------o|| |---------------------|---------------|----------|| E5/B D5/A C5/G B5/F# Bb5/F Gtrs III, IV PM| PM PM| PM PM| PM PM| PM| Q E E E E Q E E E E Q E E E E Q E E E E Q E E E E |------------|------------|------------|------------|-------------| |------------|------------|------------|------------|-------------| |------------|------------|------------|------------|-------------| |-9--x-x-9-x-|-7--x-x-7-x-|-5--x-x-5-x-|-4------4-x-|-3--x-x-3----| |-7--x-x-7-x-|-5--x-x-5-x-|-3--x-x-3-x-|-2--x-x-2-x-|-1--x-x-1----| |-7--x-x-7-x-|-5--x-x-5-x-|-3--x-x-3-x-|-2--x-x-2-x-|-1--x-x-1----| Faster Q=1 Bb5/F E5 4/4 PM| PM| Q E E E E Q E E E E W |------------|------------||----------| |------------|------------||----------| |------------|------------||----------| |-3--x-x-3---|-3--x-x-3---||-2--------| |-1--x-x-1---|-1--x-x-1---||-2--------| |-1--x-x-1---|-1--x-x-1---||-0--------| 68 +W +W +W +W |------------|------------|------------|--------| |------------|------------|------------|--------| |------------|------------|------------|--------| |-(2)--------|-(2)--------|-(2)--------|-(2)----| |-(2)--------|-(2)--------|-(2)--------|-(2)----| |-(0)--------|-(0)--------|-(0)--------|-(0)----| Bb5 A5 Bb5 A5 Bb5 A5 2/4 4/4 2/4 PM| PM| ~ PM| +H +W E E Q E E Q E a Q E Q Q E E Q |--------|------------||----------------|----------------|--------| |--------|------------||o---------------|----------------|--------| |--------|------------||----------------|----------------|--------| |-(2)----|-(2)--------||--8-8-7--8-8-7--|----------------|-8-8-7--| |-(2)----|-(2)--------||o-8-8-7--8-8-7--|---5h7--7-5-----|-8-8-7--| |-(0)----|-(0)--------||--6-6-5--6-6-5--|-0-----------7--|-6-6-5--| Bb5 A5 G5 F#5 4/4 ~ PM| E a Q E Q Q E E Q E E E E |-----------------||----------------|| |----------------o||----------------|| |-----------------||----------------|| |-----------------||-----7----------|| |---5h7--7-5-----o||-8-8-7--5-5-4---|| |-0-----------7---||-6-6-5--3-3-2p0-|| 3rd Verse E5 F5 E5 Bb5 A5 Bb5 A5 2/4 4/4 PM PM| PM PM| PM| E E E E E E Q E E Q E E E E E E Q E E Q E E Q ||-----------------|--------|-----------------|----------------| ||o----------------|--------|-----------------|----------------| ||-----------------|--------|-----------------|----------------| ||----2-----2---2--|-----3--|---2-----2---2/--|-8-8-7--8-8-7---| ||o---2---2-2---2--|-2-2-3--|---2---2-2---2/--|-8-8-7--8-8-7---| ||--0-0---0-0---0--|-0-0-1--|-0-0---0-0---0/--|-6-6-5--6-6-5---| E5 F5 E5 Bb5 A5 Bb5 2/4 4/4 PM PM| PM PM| PM| E E E E E E Q E E Q E E E E E E Q E E Q E E Q |----------------|--------|-----------------|-----------------|| |----------------|--------|-----------------|----------------o|| |----------------|--------|-----------------|-----------------|| |---2-----2---2--|-----3--|---2-----2---2/--|-8-8-7--8-8-8---|| |---2---2-2---2--|-2-2-3--|---2---2-2---2/--|-8-8-7--8-8-8--o|| |-0-0---0-0---0--|-0-0-1--|-0-0---0-0---0/--|-6-6-5--6-6-6---|| Pre-Chorus E G5 F#5 PM------------| PM--------| E E E E E E E E E E E E E E E E Q E E E E E E |-----------------|-----------------||----------------| |-----------------|-----------------||----------------| |-----------------|-----------------||----------------| |-----------------|-----------------||-4--------------| |-7-7-7-7-7-5-5---|---7-7-7-7-5-5-5-||-4--4-4-4-4-4-4-| |-0-0-0-0-0-----3-|-0-------------3-||-2--2-2-2-2-2-2-| G5 F#E5 G5 F#5 PM--------| S +S E E a E +Q a Q Q E E E E E E |-------------------------|----------------| |-------------------------|----------------| |-------------------------|----------------| |-5-(5)s4---4s5-(5)--4s5--|-4--------------| |-5-(5)s4-2-4s5-(5)--4s5--|-4--4-4-4-4-4-4-| |-3-(3)s2-0-2s3-(3)--2s3--|-2--2-2-2-2-2-2-| G5 F#E5 G5 F#5 PM--------| S +S E E a E +Q a Q Q E E E E E E |-------------------------|----------------| |-------------------------|----------------| |-------------------------|----------------| |-5-(5)s4---4s5-(5)--4s5--|-4--------------| |-5-(5)s4-2-4s5-(5)--4s5--|-4--4-4-4-4-4-4-| |-3-(3)s2-0-2s3-(3)--2s3--|-2--2-2-2-2-2-2-| G5 F#E5 G5 A5 F#5 PM--------| S +S E E a E +Q a Q Q E E E E E E |-------------------------|----------------| |-------------------------|----------------| |-------------------------|----------------| |-5-(5)s4---4s5-(5)--5s7--|-4--------------| |-5-(5)s4-2-4s5-(5)--5s7--|-4--4-4-4-4-4-4-| |-3-(3)s2-0-2s3-(3)--3s5--|-2--2-2-2-2-2-2-| F#5 PM--------| |-3-| |-3-| |-3-| |-3-| E E E E E E E E E E E E Q E E E E E E |-------------------------|----------------| |-------------------------|----------------| |-0h5h7-------------------|----------------| |-------0h5h7-------------|-4--------------| |-------------0h5h7-0h2h3-|-4--4-4-4-4-4-4-| |-------------------------|-2--2-2-2-2-2-2-| G5 F#E5 G5 F#5 PM--------| S +S E E a E +Q a Q Q E E E E E E |-------------------------|------------------| |-------------------------|------------------| |-------------------------|------------------| |-5-(5)s4---4s5-(5)--4s5--|-4----------------| |-5-(5)s4-2-4s5-(5)--4s5--|-4--4-4-4-4-4-4---| |-3-(3)s2-0-2s3-(3)--2s3--|-2--2-2-2-2-2-2---| G5 F#E5 G5 F#5 PM--------| S +S E E a E +Q a Q Q E E E E E E |-------------------------|----------------| |-------------------------|----------------| |-------------------------|----------------| |-5-(5)s4---4s5-(5)--4s5--|-4--------------| |-5-(5)s4-2-4s5-(5)--4s5--|-4--4-4-4-4-4-4-| |-3-(3)s2-0-2s3-(3)--2s3--|-2--2-2-2-2-2-2-| G5 F#E5 G5 A5 F#5 PM--------| S +S E E a E +Q a Q Q E E E E E E |-------------------------|----------------| |-------------------------|----------------| |-------------------------|----------------| |-5-(5)s4---4s5-(5)--5s7--|-4--------------| |-5-(5)s4-2-4s5-(5)--5s7--|-4--4-4-4-4-4-4-| |-3-(3)s2-0-2s3-(3)--3s5--|-2--2-2-2-2-2-2-| |-3-| |-3-| |-3-| |-3-| |-3-| |-3-| |-3-| |-3-| E E E E E E E E E E E E E E E E E E E E E E E E |-------------------------|-------------------------| |-------------------------|-------------------------| |-0h5h7-------------------|-0h5h7-------------------| |-------0h5h7-------------|-------0h5h7-------------| |-------------0h5h7-0h2h3-|-------------0h5h7-0h2h3-| |-------------------------|-------------------------| E5 Csus4 Bsus4 Csus4 PM--------| Q E E E E E E S +S E E a E +Q a Q |----------------|--------------------------|| |----------------|--------------------------|| |----------------|-5-(5)s4---4s5-(5)--4s5---|| |-2--------------|-3-(3)s2-0-2s3-(3)--2s3---|| |-2--2-2-2-2-2-2-|-3-(3)s2-0-2s3-(3)--2s3---|| |-0--0-0-0-0-0-0-|--------------------------|| Chorus A5 B5 C5 F5 W W H +Q Q |----------|----------|--------------| |----------|----------|--------------| |-2--------|-4--------|-5----(5)-----| |-2--------|-4--------|-5----(5)--3--| |-0--------|-2--------|-3----(3)--3--| |----------|----------|-----------1--| E5 Csus4 Bsus4 Csus4 PM--------| Q E E E E E E S +S E E a E +Q a Q |----------------|-------------------------| |----------------|-------------------------| |----------------|-5-(5)s4---4s5-(5)--4s5--| |-2--------------|-3-(3)s2-0-2s3-(3)--2s3--| |-2--2-2-2-2-2-2-|-3-(3)s2-0-2s3-(3)--2s3--| |-0--0-0-0-0-0-0-|-------------------------| A5 B5 F5 E5 Csus4 Bsus4 Csus4 A5 PM--------| W H. Q Q E E E E E E S +S E E a E +Q a Q W |----------|------------|----------------|-------------------------|------| |----------|------------|----------------|-------------------------|------| |-2--------|-4----------|----------------|-5-(5)s4---4s5-(5)--4s5--|-2----| |-2--------|-4-------3--|-2--------------|-3-(3)s2-0-2s3-(3)--2s3--|-2----| |-0--------|-2-------3--|-2--2-2-2-2-2-2-|-3-(3)s2-0-2s3-(3)--2s3--|-0----| |----------|---------1--|-0--0-0-0-0-0-0-|-------------------------|------| B5 G5 C5 F5 Bb5 A5 Bb5 A5 PM| PM| W W W H. Q E E Q E E Q |----------|----------|----------|-------------|---------------| |----------|-3--------|----------|-------------|---------------| |-4--------|----------|-5--------|-------------|---------------| |-4--------|-5--------|-5--------|-3-----------|-8-8-7--8-8-7--| |-2--------|-5--------|-3--------|-3-------3/--|-8-8-7--8-8-7--| |----------|-3--------|----------|-1-------1/--|-6-6-5--6-6-5--| E5 2/4 Gtr IV E E +E S +S S +E. Q E E Q |-------------------------------------------|-----------| |---10b12==(10)r-10b12==(10)r-10b12r(10)-8--|-----------| |-------------------------------------------|-11--11-9--| |-------------------------------------------|-----------| |-------------------------------------------|-----------| |-------------------------------------------|-----------| | | Gtr III | E E +E S +S S +E. Q E E Q |-------------------------------------------|-----------| |----------------------------------------8--|-----------| |---11b12==(11)r-11b12==(11)r-11b12r(11)-9--|-----------| |-------------------------------------------|-10--10-9--| |-------------------------------------------|-----------| |-------------------------------------------|-----------| | | Gtr V | W +H |-------------------------------------------|-----------| |-------------------------------------------|-----------| |-------------------------------------------|-----------| |-2-----------------------------------------|-(2)-------| |-2-----------------------------------------|-(2)-------| |-0-----------------------------------------|-(0)-------| A5 4/4 E E +E S +S S +E. Q E E Q E E Q |-------------------------------------------|--------------------| |---10b12==(10)r-10b12==(10)r-10b12r(10)-8--|--7---7-----7-8-----| |-------------------------------------------|--------7-------9---| |-------------------------------------------|--------------------| |-------------------------------------------|--------------------| |-------------------------------------------|--------------------| | | E E +E S +S S +E. Q E E Q E E Q |-------------------------------------------|--------------------| |----------------------------------------8--|--------------------| |---11b12==(11)r-11b12==(11)r-11b12r(11)-9--|--------------9-----| |-------------------------------------------|-10--10-7--10---9---| |-------------------------------------------|--------------------| |-------------------------------------------|--------------------| | | W +W |-------------------------------------------|--------------------| |-------------------------------------------|--------------------| |-2-----------------------------------------|-(2)----------------| |-2-----------------------------------------|-(2)----------------| |-0-----------------------------------------|-(0)----------------| |-------------------------------------------|--------------------| E5 2/4 E E +E S +S S +E. Q E E Q |-------------------------------------------|-----------| |---10b12==(10)r-10b12==(10)r-10b12r(10)-8--|-----------| |-------------------------------------------|-11--11-9--| |-------------------------------------------|-----------| |-------------------------------------------|-----------| |-------------------------------------------|-----------| | | E E +E S +S S +E. Q E E Q |-------------------------------------------|-----------| |----------------------------------------8--|-----------| |---11b12==(11)r-11b12==(11)r-11b12r(11)-9--|-----------| |-------------------------------------------|-10--10-9--| |-------------------------------------------|-----------| |-------------------------------------------|-----------| | | W +H |-------------------------------------------|-----------| |-------------------------------------------|-----------| |-------------------------------------------|-----------| |-2-----------------------------------------|-(2)-------| |-2-----------------------------------------|-(2)-------| |-0-----------------------------------------|-(0)-------| A5 4/4 E E +E S +S S +E. Q E E Q E E Q |-------------------------------------------|--------------------| |---10b12==(10)r-10b12==(10)r-10b12r(10)-8--|--7---7-----7-8-----| |-------------------------------------------|--------7-------9---| |-------------------------------------------|--------------------| |-------------------------------------------|--------------------| |-------------------------------------------|--------------------| | | E E +E S +S S +E. Q E E Q E E Q |-------------------------------------------|--------------------| |----------------------------------------8--|--------------------| |---11b12==(11)r-11b12==(11)r-11b12r(11)-9--|--------------9-----| |-------------------------------------------|-10--10-7--10---9---| |-------------------------------------------|--------------------| |-------------------------------------------|--------------------| | | W +W |-------------------------------------------|--------------------| |-------------------------------------------|--------------------| |-2-----------------------------------------|-(2)----------------| |-2-----------------------------------------|-(2)----------------| |-0-----------------------------------------|-(0)----------------| |-------------------------------------------|--------------------| E5 A5 B5 2/4 4/4 Gtr IV E E +E S +S S +E. Q E E Q W +W |-------------------------------------------|-----------||----------|--------| |---10b12==(10)r-10b12==(10)r-10b12r(10)-8--|-----------||----------|--------| |-------------------------------------------|-11--11-9--||-9--------|-(9)----| |-------------------------------------------|-----------||----------|--------| |-------------------------------------------|-----------||----------|--------| |-------------------------------------------|-----------||----------|--------| | | Gtr III | E E +E S +S S +E. Q E E Q W +W |-------------------------------------------|-----------||----------|--------| |----------------------------------------8--|-----------||----------|--------| |---11b12==(11)r-11b12==(11)r-11b12r(11)-9--|-----------||----------|--------| |-------------------------------------------|-10--10-9--||-9--------|-(9)----| |-------------------------------------------|-----------||----------|--------| |-------------------------------------------|-----------||----------|--------| | | W +H W W |-------------------------------------------|-----------||----------|--------| |-------------------------------------------|-----------||----------|--------| |-------------------------------------------|-----------||-2--------|--4-----| |-2-----------------------------------------|-(2)-------||-2--------|--4-----| |-2-----------------------------------------|-(2)-------||-0--------|--2-----| |-0-----------------------------------------|-(0)-------||----------|--------| PM| PM| W W H. Q E E Q E E Q |----------|----------|-------------|---------------| |----------|----------|-------------|---------------| |----------|-5--------|-------------|---------------| |-5--------|-5--------|-3-------3/--|-8-8-7--8-8-7--| |-5--------|-3--------|-3-------3/--|-8-8-7--8-8-7--| |-3--------|----------|-1-------1/--|-6-6-5--6-6-5--| E5 A5 2/4 4/4 Gtr IV ~ PM-| ~ PM----------| E Q E Q Q E E Q E Q E Q Q E E Q E E Q ||------------------|----------|-----------------|-------------------|| ||o-----------------|----------|-----------------|------------------o|| ||------------------|----------|-----------------|-------------------|| ||-----/9---9-7--5--|----------|----/9---9-7--5--|------------5------|| ||o-----------------|--9--9-7--|-----------------|--9--7-5--7---7---o|| ||------------------|----------|-----------------|-------------------|| | | Gtr III | ~ PM-| ~ PM--------| | E Q E Q Q E E Q E Q E Q Q E E Q E E Q ||------------------|----------|-----------------|-------------------|| ||o-----------------|----------|-----------------|------------------o|| ||------------------|----------|-----------------|-------------------|| ||------------------|----------|-----------------|-------------------|| ||o---/10--10-9--7--|----------|---/10--10-9--7--|------------------o|| ||------------------|--8--8-7--|-----------------|--8--7-5--7-8-7----|| | | Gtr V | W +H W +W ||------------------|----------|-----------------|-------------------|| ||o-----------------|----------|-----------------|------------------o|| ||------------------|----------|-2---------------|-(2)---------------|| ||--2---------------|-(2)------|-2---------------|-(2)---------------|| ||o-2---------------|-(2)------|-0---------------|-(0)--------------o|| ||--0---------------|-(0)------|-----------------|-------------------|| E5 2/4 E E +E S +S S +E. Q E E Q ||--------------------------------------------|-----------| ||o---10b12==(10)r-10b12==(10)r-10b12r(10)-8--|-----------| ||--------------------------------------------|-11--11-9--| ||--------------------------------------------|-----------| ||o-------------------------------------------|-----------| ||--------------------------------------------|-----------| | | E E +E S +S S +E. Q E E Q ||--------------------------------------------|-----------| ||o----------------------------------------8--|-----------| ||----11b12==(11)r-11b12==(11)r-11b12r(11)-9--|-----------| ||--------------------------------------------|-10--10-9--| ||o-------------------------------------------|-----------| ||--------------------------------------------|-----------| | | W +H ||--------------------------------------------|-----------| ||o-------------------------------------------|-----------| ||--------------------------------------------|-----------| ||--2-----------------------------------------|-(2)-------| ||o-2-----------------------------------------|-(2)-------| ||--0-----------------------------------------|-(0)-------| D5 4/4 2/4 E E +E S +S S +E. Q E E Q |-------------------------------------------|-----------| |---10b12==(10)r-10b12==(10)r-10b12r(10)-8--|--7---7----| |-------------------------------------------|--------7--| |-------------------------------------------|-----------| |-------------------------------------------|-----------| |-------------------------------------------|-----------| | | E E +E S +S S +E. Q E E Q |-------------------------------------------|-----------| |----------------------------------------8--|-----------| |---11b12==(11)r-11b12==(11)r-11b12r(11)-9--|-----------| |-------------------------------------------|-10--10-7--| |-------------------------------------------|-----------| |-------------------------------------------|-----------| | | W +H |-------------------------------------------|-----------| |-------------------------------------------|-----------| |-7-----------------------------------------|-(7)-------| |-7-----------------------------------------|-(7)-------| |-5-----------------------------------------|-(5)-------| |-------------------------------------------|-----------| 1. B5 4/4 2/4 E E +E S +S S +E. Q E E Q |-------------------------------------------|-----------| |---10b12==(10)r-10b12==(10)r-10b12r(10)-8--|-----------| |-------------------------------------------|-11--11-9--| |-------------------------------------------|-----------| |-------------------------------------------|-----------| |-------------------------------------------|-----------| | | E E +E S +S S +E. Q E E Q |-------------------------------------------|-----------| |----------------------------------------8--|-----------| |---11b12==(11)r-11b12==(11)r-11b12r(11)-9--|-----------| |-------------------------------------------|-10--10-9--| |-------------------------------------------|-----------| |-------------------------------------------|-----------| | | W +H |-------------------------------------------|-----------| |-------------------------------------------|-----------| |-4-----------------------------------------|-(4)-------| |-4-----------------------------------------|-(4)-------| |-2-----------------------------------------|-(2)-------| |-------------------------------------------|-----------| A5 G5 F#5E5 4/4 2/4 E E +E S +S S +E. Q E E Q |-------------------------------------------|-----------|| |---10b12==(10)r-10b12==(10)r-10b12r(10)-8--|----------o|| |-------------------------------------------|-11-11-9---|| |-------------------------------------------|-----------|| |-------------------------------------------|----------o|| |-------------------------------------------|-----------|| | | E E +E S +S S +E. Q E E Q |-------------------------------------------|-----------|| |----------------------------------------8--|----------o|| |---11b12==(11)r-11b12==(11)r-11b12r(11)-9--|-----------|| |-------------------------------------------|-10-10-7---|| |-------------------------------------------|----------o|| |-------------------------------------------|-----------|| | | W E E q |-------------------------------------------|-----------|| |-------------------------------------------|----------o|| |-2-----------------------------------------|-----------|| |-2-----------------------------------------|-----------|| |-0-----------------------------------------|--5--4-2--o|| |-------------------------------------------|--3--2-0---|| 2. B5 C5 B5 4/4 2/4 E E +E S +S S +E. Q E E Q |-------------------------------------------|----------| |---10b12==(10)r-10b12==(10)r-10b12r(10)-8--|----------| |-------------------------------------------|-11-11-9--| |-------------------------------------------|----------| |-------------------------------------------|----------| |-------------------------------------------|----------| | | E E +E S +S S +E. Q E E Q |-------------------------------------------|----------| |----------------------------------------8--|----------| |---11b12==(11)r-11b12==(11)r-11b12r(11)-9--|----------| |-------------------------------------------|-10-10-9--| |-------------------------------------------|----------| |-------------------------------------------|----------| | | W E E q |-------------------------------------------|----------| |-------------------------------------------|----------| |-4-----------------------------------------|--5--5-4--| |-4-----------------------------------------|--5--5-4--| |-2-----------------------------------------|--3--3-2--| |-------------------------------------------|----------| A5 G5 F#5 4/4 2/4 E E +E S +S S +E. Q E E Q |-------------------------------------------|----------| |---10b12==(10)r-10b12==(10)r-10b12r(10)-8--|----------| |-------------------------------------------|-11-11-9--| |-------------------------------------------|----------| |-------------------------------------------|----------| |-------------------------------------------|----------| | | E E +E S +S S +E. Q E E Q |-------------------------------------------|----------| |----------------------------------------8--|----------| |---11b12==(11)r-11b12==(11)r-11b12r(11)-9--|----------| |-------------------------------------------|-10-10-7--| |-------------------------------------------|----------| |-------------------------------------------|----------| | | W E E q |-------------------------------------------|----------| |-------------------------------------------|----------| |-2-----------------------------------------|----------| |-2-----------------------------------------|----------| |-0-----------------------------------------|--5--4-2--| |-------------------------------------------|--3--2-0--| G5 F#5E5 4/4 2/4 E E +E E +Q Q E E Q |-------------------------------|-----------*| |---10b12==(10)r-10b12r(10)--8--|--7--7-----*| |-------------------------------|-------9--*| |-------------------------------|-----------*| |-------------------------------|-----------*| |-------------------------------|-----------*| | | E E +E E +Q Q E E Q |-------------------------------|-----------*| |-------------------------------|-----------*| |---11b12==(11)r-11b12r(11)--9--|-----------*| |-------------------------------|-10-10-9--*| |-------------------------------|-----------*| |-------------------------------|-----------*| | | W E E Q |-------------------------------|-----------*| |-------------------------------|-----------*| |-------------------------------|-----------*| |-------------------------------|-----------*| |-------------------------------|--5--4-2---*| |-------------------------------|--3--2-0---*| Duration Legend --------------- W - whole; H - half; Q - quarter; E - 8th; S - 16th; T - 32nd; X - 64th; a - acciaccatura + - note tied to previous; . - note dotted; .. - note double dotted Uncapitalized letters represent notes that are staccato (1/2 duration) Irregular groupings are notated above the duration line Duration letters will always appear directly above the note/fret number it represents the duration for. Duration letters with no fret number below them represent rests. Multi- bar rests are notated in the form Wxn, where n is the number of bars to rest for. Low melody durations appear below the staff Tablature Legend ---------------- h - hammer-on p - pull-off b - bend pb - pre-bend r - bend release (if no number after the r, then release immediately) / - slide into or out of (from/to "nowhere") s - legato slide S - shift slide - natural harmonic [n] - artificial harmonic n(n) - tapped harmonic ~ - vibrato tr - trill T - tap TP - trem. picking PM - palm muting n/ - tremolo bar dip; n = amount to dip n - tremolo bar down n/ - tremolo bar up /n - tremolo bar inverted dip = - hold bend; also acts as connecting device for hammers/pulls <> - volume swell (louder/softer) x - on rhythm slash represents muted slash o - on rhythm slash represents single note slash Misc Legend ----------- | - bar || - double bar ||o - repeat start o|| - repeat end *| - double bar (ending) : - bar (freetime) $ - Segno & - Coda Tempo markers - = BPM(8/16=s8/s16), where s8 = swing 8ths, s16 = swing 16ths *************************************************************************************** * Generated using Power Tab Editor by Brad Larsen - http://powertab.guitarnetwork.org * ***************************************************************************************

    поиск лекарств
    список лекарств






    О сайтеАккордыХит-парадПоискУроки ФорумыИщу песню
    ПрограммыСвежачок-сПодпискаСтатьи
    Яндекс.Метрика