Табулатура Linkin Park | Fromthe Inside гитара табулатуры уроки тексты песен Linkin Park текст lyrics песня аккорды песни ноты нота электрогитара струна  
   А Б В Г Д Е Ж З И К Л М Н О П Р С Т У Ф Х Ч Ш Ы Э Ю Я       Разные песни
1-9 A B C D E F G H I J K L M N O P Q R S T U V W Y Z      Все исполнители in english

    



группа Linkin Park, Табулатура песни Fromthe Inside

Группа: Linkin Park - другие аккорды (129),   о группе (7 статей),   диски (3),   фотографии (31)
Табулатура песни: Fromthe Inside
Просмотров: 1838
Подобрал: Hulygan (hulygan17@inbox.ru)




    
Intro
Eb|--------------------------|---------------------------------------|
Bb|-3-3-3-3-3-3--------------|---------------------------------------|
Gb|-2-2-2-2-2-2--------------|---------------------------------------|
Db|-0-0-0-0-0-0--3-3-3-3-3-3-|-8-8-8-8-8-8--5-5-5-5-5-5--7-7-7-7-7-7-|
Ab|-0-0-0-0-0-0--3-3-3-3-3-3-|-8-8-8-8-8-8--5-5-5-5-5-5--7-7-7-7-7-7-|
Db|-0-0-0-0-0-0--3-3-3-3-3-3-|-8-8-8-8-8-8--5-5-5-5-5-5--7-7-7-7-7-7-|
Verse
Eb|-7---7---7---7---|-5---5---5---5---|---------|
Bb|---5---5---5---5-|---7---7---7---7-|-6---6---|
Gb|-----------------|-----------------|---7---7-|
Db|-----------------|-----------------|---------|
Ab|-----------------|-----------------|---------|
Db|-----------------|-----------------|---------|
Pre-Chorus
Eb|-------------------------|
Bb|-------------------------|
Gb|-------------------------|
Db|-<5>-<5>-<5>-<5>-<5>-<5>-|
Ab|-<5>-<5>-<5>-<5>-<5>-<5>-|
Db|-<5>-<5>-<5>-<5>-<5>-<5>-|
Bridge (part 1)
Eb|-------------|
Bb|-------------|
Gb|-------------|
Db|-0--0-0-0--0-|
Ab|-0--0-0-0--0-| Db|-0--0-0-0--0-| Bridge (part 2) Eb|-------------| Bb|-------------| Gb|-------------| Db|-1--1-1-1--1-| Ab|-1--1-1-1--1-| Db|-1--1-1-1--1-| Bridge (part 3/guitar 1) Eb|--------------------------| Bb|--------------------------| Gb|--------------------------| Db|-0--0-0-0--0--------------| Ab|-0--0-0-0--0--<7>-----<5>-| Db|-0--0-0-0--0------<5>-----| Bridge (part 3/guitar 2) Eb|-------------| Bb|-------------| Gb|-------------| Db|-0--0-0-0--0-| Ab|-0--0-0-0--0-| Db|-0--0-0-0--0-|








О сайтеАккордыХит-парадПоискУроки ФорумыИщу песню
ПрограммыСвежачок-сПодпискаСтатьи
Яндекс.Метрика