Аккорды Linkin Park | Lying From You гитара табулатуры уроки тексты песен Linkin Park текст lyrics песня аккорды песни ноты нота электрогитара струна  
   А Б В Г Д Е Ж З И К Л М Н О П Р С Т У Ф Х Ч Ш Ы Э Ю Я       Разные песни
1-9 A B C D E F G H I J K L M N O P Q R S T U V W Y Z      Все исполнители in english

    



группа Linkin Park, Аккорды песни Lying From You

Группа: Linkin Park - другие аккорды (129),   о группе (7 статей),   диски (3),   фотографии (31)
Аккорды песни: Lying From You
Просмотров: 2176
Подобрал: Hulygan (hulygan17@inbox.ru)




    
Intro
e|| ---------------------------------.||
B|| ---------------------------------.||
G||.-----------5--7-6-5--8-7-6-5-----.||  2 times
D||.-----------5--7-6-5--8-7-6-5--4--.||
A|| -----------3--5-4-3--6-5-4-3--4--.||
E|| -x-x-x-x---3--5-4-3--6-5-4-3--2--.||
Main
(When I pretend,
 everything is what I want it be...)
                 3 times                              last time
e|| ---------------------------------|--------------------------------- ||
B|| ---------------------------------|--------------------------------- ||
G||.--7-7-------------------5-5-5-5--|--7-7----------------------------.||
D||.--7-7-----------3-3-----5-5-5-5--|--7-7------------3-3-3---5-5-5-5-.||
A|| --5-5-----------3-3-----3-3-3-3--|--5-5------------3-3-3---5-5-5-5- ||
E|| --5-5-----------1-1-----3-3-3-3--|--5-5------------1-1-1---3-3-3-3- ||
Chorus
(You...I wanna be close beside so let me go...)
                                 2 times

Продолжаем грести бабос на ботах в Telegram.
Только в этот раз есть вариант автоматизировать это дело, привлекая рефералов. Вы можете заработать если »

e|| ---------------------------------|--------------------------------- || B|| ---------------------------------|--------------------------------- || G||.--7-7----------------------5-5-5-|--3-3----------------------5-5-5-.|| D||.--7-7----------------3-----5-5-5-|--3-3---------------5------5-5-5-.|| A|| --5-5--7777-3333-55--3-----3-3-3-|--1-1--7777-3333-55-5------3-3-3- || E|| --5-5----------------1-----3-3-3-|--1-1---------------3------3-3-3- || Bridge (This isn_t what I wanted to be, I never thought what I said would have you running from me...) 8 times e|| ------------------------.|| B|| ------------------------.|| G||.--5--7-6-5--8-7-6-5-----.|| D||.--5--7-6-5--8-7-6-5--4--.|| A|| --3--5-4-3--6-5-4-3--4--.|| E|| --3--5-4-3--6-5-4-3--2--.|| Chorus








О сайтеАккордыХит-парадПоискУроки ФорумыИщу песню
ПрограммыСвежачок-сПодпискаСтатьи
Яндекс.Метрика