Табулатура Linkin Park | Runaway гитара табулатуры уроки тексты песен Linkin Park текст lyrics песня аккорды песни ноты нота электрогитара струна  
   А Б В Г Д Е Ж З И К Л М Н О П Р С Т У Ф Х Ч Ш Ы Э Ю Я       Разные песни
1-9 A B C D E F G H I J K L M N O P Q R S T U V W Y Z      Все исполнители in english

    



группа Linkin Park, Табулатура песни Runaway

Группа: Linkin Park - другие аккорды (129),   о группе (7 статей),   диски (3),   фотографии (31)
Табулатура песни: Runaway
Просмотров: 2103
Прислал: Hulygan (hulygan17@inbox.ru)




    
Intro:
C#|-----------------------------------------------------------|
G#|-----------------------------------------------------------|
 E|--7---7-7-10---10-10--10---10-10-3---3-3-5---5-5--5---5-5--|
 B|--7---7-7-10---10-10--10---10-10-3---3-3-5---5-5--5---5-5--|
F#|--5---5-5--8----8--8---8----8--8-1---1-1-3---3-3--3---3-3--|
 B|-----------------------------------------------------------|
   Chorus:
C#|-----------------------------------------------------------------|
G#|-----------------------------------------------------------------|
 E|----------10---10-10--10---10-10---------------------------------|
 B|0---0-0---10---10-10--10---10-10-8---8-8-10---10-10--10---10-10--|
F#|0---0-0---8----8---8---8----8--8-8---8-8-10---10-10--10---10-10--|
 B|0---0-0--------------------------8---8-8-10---10-10--10---10-10--|
   Verses:
C#|-------------------------------------------------------------|

Продолжаем грести бабос на ботах в Telegram.
Только в этот раз есть вариант автоматизировать это дело, привлекая рефералов. Вы можете заработать если »

G#|-------------------------------------------------------------| E|-------------------------------------------------------------| B|*12-*12-*12-*12-*12-*12-*12-*12-*12-*12-*12-*12-10-10-10-10--| F#|-------------------------------------------------------------| B|-------------------------------------------------------------| PM............................................. Bridge 2: C#|---------------------------------------| G#|---------------------------------------| E|---------------------------------------| B|--0---0-0-1-0-0-0---0-0-0-1------------| F#|--0---0-0-1-0-0-0---0-0-0-1------------| B|--0---0-0-1-0-0-0---0-0-0-1------------|

www.linkin-park.ru







О сайтеАккордыХит-парадПоискУроки ФорумыИщу песню
ПрограммыСвежачок-сПодпискаСтатьи
Яндекс.Метрика