Табулатура Linkin Park | With You гитара табулатуры уроки тексты песен Linkin Park текст lyrics песня аккорды песни ноты нота электрогитара струна  
   А Б В Г Д Е Ж З И К Л М Н О П Р С Т У Ф Х Ч Ш Ы Э Ю Я       Разные песни
1-9 A B C D E F G H I J K L M N O P Q R S T U V W Y Z      Все исполнители in english

    



группа Linkin Park, Табулатура песни With You

Группа: Linkin Park - другие аккорды (129),   о группе (7 статей),   диски (3),   фотографии (31)
Табулатура песни: With You
Просмотров: 1945
Подобрал: Hulygan (hulygan17@inbox.ru)




    
Seven String Arranged For A Six String
(B,F#,B,E,G#,C#)
  Intro/Pre Chorus: BASS
C#|--------------------------------|
G#|--------------------------------|
E |--------------------------------|
B |--------------------------------|
F#|--------------------------------|
B |---55--55--55--55---------------|
 VERSE
C#|--------------------------------------|
G#|--------------------------------------|
E |---------------------23--------------|
B |--0--0-0-1--000000--------------------|
F#|--0--0-0-1--000000--------------------|
B |--0--0-0-1--000000--------------------|
 Verses:

Продолжаем грести бабос на ботах в Telegram.
Только в этот раз есть вариант автоматизировать это дело, привлекая рефералов. Вы можете заработать если »

C#|------------------------------------------------| G#|---20---19------------------------20--------19--| E |--------------19---16-------16--------12--------| B |------------------------------------------------| F#|------------------------------------------------| B |------------------------------------------------| Chorus: C#|--------------------------------------| G#|--------------------------------------| E |---7---7---10--5----------------------| B |---5---X---8---3----------------------| F#|---5---5---8---3----------------------| B |---5---0---8---3----------------------| -------------------------

www.linkin-park.ru







О сайтеАккордыХит-парадПоискУроки ФорумыИщу песню
ПрограммыСвежачок-сПодпискаСтатьи
Яндекс.Метрика