Табулатура Linkin Park | Papercut гитара табулатуры уроки тексты песен Linkin Park текст lyrics песня аккорды песни ноты нота электрогитара струна  
   А Б В Г Д Е Ж З И К Л М Н О П Р С Т У Ф Х Ч Ш Ы Э Ю Я       Разные песни
1-9 A B C D E F G H I J K L M N O P Q R S T U V W Y Z      Все исполнители in english

    



группа Linkin Park, Табулатура песни Papercut

Группа: Linkin Park - другие аккорды (129),   о группе (7 статей),   диски (3),   фотографии (31)
Табулатура песни: Papercut
Просмотров: 2200
Прислал: Hulygan (hulygan17@inbox.ru)




    
  Intro:
Eb|--10----12----13----12----10----12----13----12-------|
Bb|-----10----10----10----10----10----10----10----10----|
F#|-----------------------------------------------------|
C#|-----------------------------------------------------|
G#|-----------------------------------------------------|
C#|-----------------------------------------------------|
   Chorus:
Eb|----------------------------------------------|
Bb|----------------------------------------------|
F#|----------10--9--5----------------------------|
C#|--0-0-0----x--x--x--------------------1-1-3---|
G#|--0-0-0----8--7--3--------------------1-1-3---|
C#|--0-0-0-------------------------------1-1-3---|
   Verses: (Palm mute for 2nd verse)
Eb|------------------------------------------|

Продолжаем грести бабос на ботах в Telegram.
Только в этот раз есть вариант автоматизировать это дело, привлекая рефералов. Вы можете заработать если »

Bb|------------------------------------------| F#|------------------------------------------| C#|--0-0-0----3-3-3-3-2-2-------------1-1-3--| G#|--0-0-0----1-1-1-1-0-0-------------1-1-3--| C#|--0-0-0----------------------------1-1-3--| Ending: Eb|---------------------------------------------------------| Bb|---------------------------------------------------------| F#|---------------------------------------------------------| C#|--8-8-8---8---8-8-10-10-10---5-5-5---5--5-5-5-5---5-5-5--| G#|--8-8-8---8---8-8-10-10-10---5-5-5---5--5-5-5-5---5-5-5--| C#|--8-8-8---8---8-8-10-10-10---5-5-5---5--5-5-5-5---5-5-5--| -----------------------------

www.linkin-park.ru







О сайтеАккордыХит-парадПоискУроки ФорумыИщу песню
ПрограммыСвежачок-сПодпискаСтатьи
Яндекс.Метрика