Табулатура 12 Stones | The Way I Feel гитара табулатуры уроки тексты песен 12 Stones текст lyrics песня аккорды песни ноты нота электрогитара струна  
   А Б В Г Д Е Ж З И К Л М Н О П Р С Т У Ф Х Ч Ш Ы Э Ю Я       Разные песни
1-9 A B C D E F G H I J K L M N O P Q R S T U V W Y Z      Все исполнители

    



группа 12 Stones, Табулатура песни The Way I Feel

Группа: 12 Stones - другие аккорды (13),   о группе (1 статей),   диски (1),   фотографии (17)
Табулатура песни: The Way I Feel
Просмотров: 956
Подобрал: Mary8-0 (mary8-0@nm.ru)




    
|--------------------------------------|
|--------------------------------------|
|--------------------------------------|
|-----10-----10-------10-----10---10---|
|---8----8----------8----8-------------|
|-0--------0----0-8--------8----8------|
|--------------------------------------|
|--------------------------------------|
|---------------------------------10---|
|-----10-----10-------10-----10--------|
|---8----8----------8----8-------------|
|-0--------0----0-8--------8----8------|

|----------------------------------------------------|

Продолжаем грести бабос на ботах в Telegram.
Только в этот раз есть вариант автоматизировать это дело, привлекая рефералов. Вы можете заработать если »

|----------------------------------------------------| |---------3-3-3-3------------------------------------| |-x-x-0-0-3-3-3-3-3-3-3-5-5-5-5-3h5------------------| |-x-x-0-0-1-1-1-1-3-3-3-5-5-5-5-3h5------------------| |-x-x-0-0---------3-3-3-5-5-5-5-3h5------------------| |--------------------------------| |--------------------------------| |------3-3-3-3-5-5-x-x-5-5-x-x-5-| |--0-0-3-3-3-3-5-5-x-x-5-5-x-x-5-| |--0-0-1-1-1-1-3-3-x-x-3-3-x-x-3-| |--0-0---------------------------|








О сайтеАккордыХит-парадПоискУроки ФорумыИщу песню
ПрограммыСвежачок-сПодпискаСтатьи
Яндекс.Метрика