Табулатура 12 Stones | My Life гитара табулатуры уроки тексты песен 12 Stones текст lyrics песня аккорды песни ноты нота электрогитара струна  
   А Б В Г Д Е Ж З И К Л М Н О П Р С Т У Ф Х Ч Ш Ы Э Ю Я       Разные песни
1-9 A B C D E F G H I J K L M N O P Q R S T U V W Y Z      Все исполнители

    



группа 12 Stones, Табулатура песни My Life

Группа: 12 Stones - другие аккорды (13),   о группе (1 статей),   диски (1),   фотографии (17)
Табулатура песни: My Life
Просмотров: 1040
Подобрал: Mary8-0 (mary8-0@nm.ru)




    
2 раза
|---------------------------------|
|---------------------------------|
|---2--3-2---2-----3-2------------|
|--------------0-------0----------|
|---------------------------------|
|-0---0----0-----0----------------|

|----------------------|
|----------------------|
|----------------------|
|-3-3------------------|
|-3-3------------------|
|-3-3------------------|

|-------------------------------------------|
|-------------------------------------------|
|---2---3-2----2---3-2----2---3-2---2---3-2-|
|-------------------------------------------|
|------------3---3------1---1-----0---0-----|
|-0---0-------------------------------------|

|-----------------------------------------------------|
|-----------------------------------------------------|
|---------------5-5-3-3-----------------3-3-----------|
|-0-x-x-3/5-5-5-5-5-3-3---0-x-x-3/5-5-5-3-3-3-3-------|
|-0-x-x-3/5-5-5-3-3-1-1---0-x-x-3/5-5-5-1-1-3-3-------|
|-0-x-x-3/5-5-5-----------0-x-x-3/5-5-5-----3-3-------|
|---------------------------------------------------|
|---------------------------------------------------|
|---------------5-5-3-3-2-2-2-2-2-2-2---------------|
|-0-x-x-3/5-5-5-5-5-3-3-2-2-2-2-2-2-2-3-3-3-3-5-5-5-|
|-0-x-x-3/5-5-5-3-3-1-1-0-0-0-0-0-0-0-3-3-3-3-5-5-5-|

Продолжаем грести бабос на ботах в Telegram.
Только в этот раз есть вариант автоматизировать это дело, привлекая рефералов. Вы можете заработать если »

|-0-x-x-3/5-5-5-----------------------3-3-3-3-5-5-5-| |---------------------------------| |---------------------------------| |---------------------------------| |-0-0-0-0-14-0-0-0-0-14-0-0-14----| |-0-0-0-0-13-0-0-0-0-13-0-0-13----| |-0-0-0-0-0--0-0-0-0-0--0-0-0-----| pm..... pm..... pm. |---------------------------------| |---------------------------------| |---------------------------------| |-0-0-0-0-14-0-0-0-0-14-0-0-14----| |-0-0-0-0-13-0-0-0-0-13-0-0-13----| |-0-0-0-0-0--0-0-0-0-0--0-0-0-----| pm..... pm..... pm. |---------------------------------| |---------------------------------| |---------------------------------| |-0-0-0-0-14-0-0-0-0-14-0-0-14----| |-0-0-0-0-13-0-0-0-0-13-0-0-13----| |-0-0-0-0-0--0-0-0-0-0--0-0-0-----| pm..... pm..... pm. |---------------------------------| |---------------------------------| |---------------------------------| |-0-0-0-0-14-0-0-4-4-3-2-3-2-1----| |-0-0-0-0-13-0-0-4-4-3-2-3-2-1----| |-0-0-0-0-0--0-0-4-4-3-2-3-2-1----| pm..... pm...............








О сайтеАккордыХит-парадПоискУроки ФорумыИщу песню
ПрограммыСвежачок-сПодпискаСтатьи
Яндекс.Метрика