Табулатура 12 Stones | Running Out Of Pain гитара табулатуры уроки тексты песен 12 Stones текст lyrics песня аккорды песни ноты нота электрогитара струна  
   А Б В Г Д Е Ж З И К Л М Н О П Р С Т У Ф Х Ч Ш Ы Э Ю Я       Разные песни
1-9 A B C D E F G H I J K L M N O P Q R S T U V W Y Z      Все исполнители

    



группа 12 Stones, Табулатура песни Running Out Of Pain

Группа: 12 Stones - другие аккорды (13),   о группе (1 статей),   диски (1),   фотографии (17)
Табулатура песни: Running Out Of Pain
Просмотров: 1141
Подобрал: Mary8-0 (mary8-0@nm.ru)




    

Db[------------------------------------------------- 
Ab[------------------------------------------------- 
Fb[--------0----0----------------0----0------------- 
Cb[----2h4--------4p2--------2h4--------4p2--------- 
Gb[------------------------------------------------- 
Cb[-2---------------------2------------------------- 
Db[------------------------------------------------- 
Ab[------------------------------------------------- 
Fb[--------0----0------------------0----0----------- 
Cb[----2h4--------4p2----------2h4--------4p2------- 
Gb[------------------------------------------------- 
Cb[-0-----------------------0----------------------- 
Db[------------------------------------------------- 
Ab[------------------------------------------------- 
Fb[----------7-7-------7------9-9--------9---------- 
Cb[---------------9--9----9-------9-9-9----9-------- 
Gb[-7h9--7------------------------------------------ 
Cb[------------------------------------------------- 

Db[------------------------------------------------- 
Ab[------------------------------------------------- 
Fb[-------------------5--------7-------------------- 
Cb[-2--------0--------5--------7-------------------- 
Gb[-2--------0--------3--------5-------------------- 
Cb[-2--------0-------------------------------------- 

Db[------------------------------------------------- 
Ab[------------------------------------------------- 
Fb[------------------------------------------------- 

Продолжаем грести бабос на ботах в Telegram.
Только в этот раз есть вариант автоматизировать это дело, привлекая рефералов. Вы можете заработать если »

Cb[-2--2-2--x--2----0--0-0--x--0-------------------- Gb[-2--2-2--x--2----0--0-0--x--0-------------------- Cb[-2--2-2--x--2----0--0-0--x--0-------------------- Db[----------------------------------------------- Ab[----------------------------------------------- Fb[--9~~~~~~~~~---7h9--9p7------------------------ Cb[-------------9----------9p7-------------------- Gb[----------------------------9~~~~---7~~~~------ Cb[----------------------------------------------- Db[----------------------------------------------- Ab[-------8h10--10b11r10--8h10-------------------- Fb[--7h9------------------------------------------ Cb[----------------------------------------------- Gb[----------------------------------------------- Cb[----------------------------------------------- Db[----------12-10---------------------------------------- Ab[--8h10p8--------12-10--8-------------12b--------------- Fb[---------------------------9--------------------------- Cb[------------------------------------------------------- Gb[------------------------------------------------------- Cb[-------------------------------------------------------








О сайтеАккордыХит-парадПоискУроки ФорумыИщу песню
ПрограммыСвежачок-сПодпискаСтатьи
Яндекс.Метрика