Табулатура 12 Stones | In My Head гитара табулатуры уроки тексты песен 12 Stones текст lyrics песня аккорды песни ноты нота электрогитара струна  
   А Б В Г Д Е Ж З И К Л М Н О П Р С Т У Ф Х Ч Ш Ы Э Ю Я       Разные песни
1-9 A B C D E F G H I J K L M N O P Q R S T U V W Y Z      Все исполнители

    



группа 12 Stones, Табулатура песни In My Head

Группа: 12 Stones - другие аккорды (13),   о группе (1 статей),   диски (1),   фотографии (17)
Табулатура песни: In My Head
Просмотров: 1047
Подобрал: Mary8-0 (mary8-0@nm.ru)




    
 In My Head    
 

|---------------------------------------------------| 
|-------------------3-------------------------------| 
|---------2-----2h5--------0h2-5-4-2-5-4-2-0--------| 
|-----3h5----0-----------3--------------------------| 
|---------------------------------------------------| 
|-0-0------------------3----------------------------| 
|-------------------------------------------------| 
|-------------------------------------------------| 
|-----------5---------2-----------3-----3-----3---| 
|---5-----5---5---3-5-----3-----3---3-----3-------| 
|-3---3-3-------3-------1---1-1-------1-----1-----| 
|-------------------------------------------------| 

|-1-1-1-1-1---------------3-3-3-3-3-3-1-1-1-1-1-1-1------| 
|-3-3-3-3-3-3-3-3-3-3-3-3-5-5-5-5-5-5-3-3-3-3-3-3-3------| 
|-3-3-3-3-3-2-2-2-2-2-2-2-5-5-5-5-5-5-3-3-3-3-3-3-3------| 
|-3-3-3-3-3-0-0-0-0-0-0-0-5-5-5-5-5-5-3-3-3-3-3-3-3------| 
|-1-1-1-1-1-0-0-0-0-0-0-0-3-3-3-3-3-3-1-1-1-1-1-1-1------| 
|-----------0-0-0-0-0-0-0--------------------------------| 

|-----------------------------------------------------| 
|-----------------------------------------------------| 
|---------------------------5-3-3-3-3-3-5-5-5-----------| 

Продолжаем грести бабос на ботах в Telegram.
Только в этот раз есть вариант автоматизировать это дело, привлекая рефералов. Вы можете заработать если »

|-------------------0-0-0-0-5-3-3-3-3-3-5-5-5-3---------| |-3-2-0-5-3-2-0-3-2-0-0-0-0-3-1-1-1-1-1-3-3-3-3---------| |-3-2-0-5-3-2-0-3-2-0-0-0-0-------------------3---------| pm................ |----------------------------------------------------------| |----------------------------------------------------------| |---2---3-3-3---------------2---3-3-3----------------------| |-0-2-0-3-3-3-5-5-5-7-7-7-0-2-0-3-3-3----------------------| |-0-0-0-1-1-1-5-5-5-7-7-7-0-0-0-1-1-1-3-2-0-5-3-2-0-3-2----| |-0---0-------5-5-5-7-7-7-0---0-------3-2-0-5-3-2-0-3-2----| pm...............








О сайтеАккордыХит-парадПоискУроки ФорумыИщу песню
ПрограммыСвежачок-сПодпискаСтатьи
Яндекс.Метрика