Табулатура 12 Stones | Fade Away гитара табулатуры уроки тексты песен 12 Stones текст lyrics песня аккорды песни ноты нота электрогитара струна  
   А Б В Г Д Е Ж З И К Л М Н О П Р С Т У Ф Х Ч Ш Ы Э Ю Я       Разные песни
1-9 A B C D E F G H I J K L M N O P Q R S T U V W Y Z      Все исполнители

    



группа 12 Stones, Табулатура песни Fade Away

Группа: 12 Stones - другие аккорды (13),   о группе (1 статей),   диски (1),   фотографии (17)
Табулатура песни: Fade Away
Просмотров: 1934
Подобрал: Mary8-0 (mary8-0@nm.ru)




    
 Fade Away    
 
------------------------------------------------------ 
------------------------------------------------------ 
------------------------------------------------------ 
-----7-----7---7-------10-----10---10-----7-----7---7- 
---5---5-------------8----8-------------5---5--------- 
-0-------0---0-----8--------8----8----5-------5---5--- 
------------------ 
------------------ 
------------------ 
-----7------------ 
---5---5---5------ 
-5-------5---5-7-- 

-------------------------- 
-------------------------- 
-----3-3------------------ 
-0-0-3-3-5-5-x-5-7-7-7---- 

Продолжаем грести бабос на ботах в Telegram.
Только в этот раз есть вариант автоматизировать это дело, привлекая рефералов. Вы можете заработать если »

-0-0-1-1-5-5-x-5-7-7-7---- -0-0-----5-5-x-5-7-7-7---- -------------------------------- -------------------------------- -------------------------------- -0-3-0-0-5-3-0-3-0-3-0-5-3-0-3-- -0-3-0-0-5-3-0-3-0-3-0-5-3-0-3-- -0-3-0-0-5-3-0-3-0-3-0-5-3-0-3-- ---------------------------------- ---------------------------------- ---------------------------------- -5~-7~-0-3-2-0-5-3-0-5-3-0-0------ -5~-7~-0-3-2-0-5-3-0-5-3-0-0------ -5~-7~-0-3-2-0-5-3-0-5-3-0-0------ pm........... Наслаждайтесь








О сайтеАккордыХит-парадПоискУроки ФорумыИщу песню
ПрограммыСвежачок-сПодпискаСтатьи
Яндекс.Метрика