Басовая табулатура 12 Stones | Broken гитара табулатуры уроки тексты песен 12 Stones текст lyrics песня аккорды песни ноты нота электрогитара струна  
   А Б В Г Д Е Ж З И К Л М Н О П Р С Т У Ф Х Ч Ш Ы Э Ю Я       Разные песни
1-9 A B C D E F G H I J K L M N O P Q R S T U V W Y Z      Все исполнители

    



группа 12 Stones, Басовая табулатура песни Broken

Группа: 12 Stones - другие аккорды (13),   о группе (1 статей),   диски (1),   фотографии (17)
Басовая табулатура песни: Broken
Просмотров: 879
Подобрал: Mary8-0 (mary8-0@nm.ru)




    
g--------------------------------------------- 
d--------------------------------------------- 
a--------------------------------------------- 
D-xxxx0--0xxxx0--0-10-10--8--8xxxx8--8--10-10- 

Версия
g----------------------------------------------------------- 
d----------------------------------------------------------8 
a------------------------------------------------------8h10- 
D-0-0-12-10-8-8---8-10-12-12--12-10-8-8--0-0-0 0h8-8h10----- 
Не уверена что правельно
Вариант
g------------------------------------ 
d------------------------------------ 
a------------------------------------ 
D-00-xxxx-00-10-10-8-8-xxxx-8-8-10-10 
interlude 
g---------------------------------------------------- 
d---------------------------------------------------- 
a-----8-8-8-8-12-12-12-12-----8-8-8-8-7-7-7-7-5-5-5-5 
D-0-0---------------------3-3------------------------ 
repeat as needed 
Соло

Продолжаем грести бабос на ботах в Telegram.
Только в этот раз есть вариант автоматизировать это дело, привлекая рефералов. Вы можете заработать если »

g------------------- d------------------- a------------------- D--0~~~~~~~0~~~~~~~~ Басс g------------------------------------------------ d------------------------------------------------ a----8-8-7-7-8-8-10-10-8-8-7-7-5-5----8-8-7-7-8-8 D-0-0------------------------------88------------ g------------------ d-10-10-8-8-7-7-8-8 a------------------ D------------------ 2 g---------------------------------------------------------- d------------------------------------------------1010101010 a----8-8-7-7-8-8-10-10-8-8-7-7-5-5----8-8-7-7-8-8---------- D-0-0------------------------------88----------------------

www.paulmccoy.narod.ru







О сайтеАккордыХит-парадПоискУроки ФорумыИщу песню
ПрограммыСвежачок-сПодпискаСтатьи
Яндекс.Метрика