Табулатура 12 Stones | Broken гитара табулатуры уроки тексты песен 12 Stones текст lyrics песня аккорды песни ноты нота электрогитара струна  
   А Б В Г Д Е Ж З И К Л М Н О П Р С Т У Ф Х Ч Ш Ы Э Ю Я       Разные песни
1-9 A B C D E F G H I J K L M N O P Q R S T U V W Y Z      Все исполнители

    



группа 12 Stones, Табулатура песни Broken

Группа: 12 Stones - другие аккорды (13),   о группе (1 статей),   диски (1),   фотографии (17)
Табулатура песни: Broken
Просмотров: 2030
Подобрал: Mary8-0 (mary8-0@nm.ru)




    
e |---------------------------------------------------| 
B |---------------------------------------------------| 
G |--xxx-77-xx-777-55-33-xx-333-5--77-xx-777-101010---| 
D |--xxx-77-xx-777-55-33-xx-333-5--77-xx-777—101010---| 
A |--xxx-55-xx-555-33-11-xx-111-3--55-xx-555--8-8-8---| 
e |---------------------------------------------------| 
e |-----------------| 
B |-----------------| 
G |---33-xx-333-5---| 
D |---33-xx-333-5---| 
A |---11-xx-111-3---| 
e |-----------------| 
Варианты
e |--------------------------------------------------------| 
B |--------------------------------------------------------| 
G |------2-------------------------------------------------| 
D |--0-3---3---0h2h3---0h2h3----0h2h3--------0—3--3---(X5)-| 
A |---------------------------1--------1h3-----------------| 
e |--------------------------------------------------------| 
~~Играть 5 раз на шестой (1h3),потом: 
Версия 1 
e |--------------------------------------------------------| 
B |--------------------------------------------------------| 
G |-xxx-77-xx-777-55-33-xx-333-5--77-xx-777-55-33-xx-333-5-| 
D |-xxx-77-xx-777-55-33-xx-333-5--77-xx-777-55-33-xx-333-5-| 
A |-xxx-55-xx-555-33-11-xx-111-3--55-xx-555-33-11-xx-111-3-| 
e |--------------------------------------------------------| 
e |-------------------------------------------------| 
B |-------------------------------------------------| 
G |-77-xx-777-101010-33-xx-333-5--77-xx-777-101010--| 
D |-77-xx-777—101010-33-xx-333-5--77-xx-777-101010--| 
A |-55-xx-555--8-8-8-11-xx-111-3--55-xx-555--8-8-8--| 

Продолжаем грести бабос на ботах в Telegram.
Только в этот раз есть вариант автоматизировать это дело, привлекая рефералов. Вы можете заработать если »

e |-------------------------------------------------| e |-----------------| B |-----------------| G |---33-xx-333-5---| D |---33-xx-333-5---| A |---11-xx-111-3---| e |-----------------| Играть вариант 1, 4 раза Играть версию 1, потом: Версия 2 e |-----------------------------------------| B |-----------------------------------------| G |---7777/1010--1212---7777/1010--99-------| D |---7777/1010—-1212---7777/1010--99--(X4)-| A |---5555/-8-8--1010---5555/-8-8--77-------| e |-----------------------------------------| Версия 3 e |--------------------------------------------------------| B |--------------------------------------------------------| G |----------------------------------------55-33-22-33-----| D |--00-33-22-33-55-33-22-00---00-33-22-33------------(X4)-| A |--------------------------------------------------------| e |--------------------------------------------------------| Концовка B |--9--| G |--9--| D |--7--|








О сайтеАккордыХит-парадПоискУроки ФорумыИщу песню
ПрограммыСвежачок-сПодпискаСтатьи
Яндекс.Метрика