Табулатура Ария | Машина Смерти гитара табулатуры уроки тексты песен Ария текст lyrics песня аккорды песни ноты нота электрогитара струна  
   А Б В Г Д Е Ж З И К Л М Н О П Р С Т У Ф Х Ч Ш Ы Э Ю Я       Разные песни
1-9 A B C D E F G H I J K L M N O P Q R S T U V W Y Z      Все исполнители in english

    



группа Ария, Табулатура песни Машина Смерти

Работа в Европе для граждан РФ, Украины, СНГ

  • минимальная зарплата $500.
  • виза и контракт на полгода, возможно продление
  • проживание оплачивает работодатель
  • нужен только загранпаспорт
  • оформление 190 €
  • данное предложение - отличная возможность эмигрировать в Европу и закрепиться здесь навсегда.

  • Мы свяжемся с Вами по WhatsApp или Viber и ответим на любые вопросы.
    на нашем сайте можно почитать подробнее »

    Группа: Ария - другие аккорды (629),   о группе (7 статей),   диски (18),   фотографии (92)
    Табулатура песни: Машина Смерти
    Просмотров: 4103
    Подобрал: Аэлин (anna@akkords.ru)




        
    Темп: 95 bpm
    Рифф 1:
    Гит. E|-------------------------------------------------|-------------------------------------------------|
         H|-------------------------------------------------|-------------------------------------------------|
         G|-------------------------------------------------|-------------------------------------------------|
         D|-------------------------------------------------|-------------------------------------------------|
         A|----------------7--------------------------------|----------------7--------------------------------|
         E|-3-p0--0--7-p0-----0--0--3-p0--0--6-p0--6--5~~~~-|-3-p0--0--7-p0-----0--0--3--0--6--5~~~~~~~~~-----|
    Гит. E|-------------------------------------------------|-------------------------------------------------|
         H|-------------------------------------------------|-------------------------------------------------|
         G|-------------------------------------------------|-------------------------------------------------|
         D|-------------------------------------------------|-------------------------------------------------|
         A|----------------7--------------------------------|-6--------5--------4--------------------------2--|
         E|-3-p0--0--7-p0-----0--0--3-p0--0--6-p0--6--5~~~~-|----7--0-----6--0-----5--0--0--3--6-----3-----0--|
    Куплет:
    ВокалE|---------------------------------------------------------------------------------------------------|
         H|---------------------------------------------------------------------------------------------------|
         G|-------4-----4----5--4-----------------------------------------------------------------------------|
         D|-------------------------------7----------------------------------------5--------------------------|
         A|---------------------------------------------------------7------7----7-----------------------------|
         E|----  Ма -  ши - нa смер  -   ти                        сo -  шлa  с умa   ------------------------|
          |                                                 |                                                 |
    Гит. E|-------------------------------------------------|-------------------------------------------------|
         H|-------------------------------------------------|-------------------------------------------------|
         G|-------------------------------------------------|-------------------------------------------------|
         D|-------------------------------------------------|-------------------------------------------------|
         A|(2)-------------------2-----------------------2--|(2)-------------------2-----------------5--6--7--|
         E|(0)-0--0--0--0--0--0--0-----0--0--0--0--0--0--0--|(0)-0--0--0--0--0--0--0-----0--0--0--0--3--4--5--|
     
    ВокалE|---------------------------------------------------------------------------------------------------|
         H|---------------------------------------------------------------------------------------------------|
         G|-------5-----5----5--4------------------------4----------------------------------------------------|
         D|-------------------------------7-----5--7----------------------------------------------------------|
         A|---------------------------------------------------------------------------------------------------|
         E|----   о  - нa    летит,     сме -   тая    всех.     ---------------------------------------------|
          |                                                 |                                                 |
    Гит. E|-------------------------------------------------|-------------------------------------------------|
         H|-------------------------------------------------|-------------------------------------------------|
         G|-------------------------------------------------|-------------------------------------------------|
         D|-------------------------------------------------|----------------------------4--4-/5--5-4--4-----|
         A|(7)----------7--5-----3-----------------------2--|(2)----------2--------2-----2--2-/3--3-2--2--2--|
         E|(5)-5--5--5--5--3-----1-----1--1--1--1--1--1--0--|(0)-0--0--0--0--0--0--0-----------------------0--|
    ...
    Предприпев:
    ВокалE|---------------------------------------------------------------------------------------------------|
         H|-------5-----5-----7--7-----------8----------------------5-----5-----7-----7--8-----5--------------|
         G|---------------------------------------------------------------------------------------------------|
         D|---------------------------------------------------------------------------------------------------|
         A|---------------------------------------------------------------------------------------------------|
         E|----  Mы   здесь  сегод    -     ня,                     а    зa -втрa    будем    там.  ----------|
          |                                                 |                                                 |
    Гит. E|-------------------------------------------------|-------------------------------------------------|
         H|-------------------------------------------------|-------------------------------------------------|
         G|(2)-------------------4-----------5--------------|----------------------------------------------5--|
         D|(2)-------------------4-----------5-----------2--|(2)-------------------4-----------5-----------5--|
         A|(0)-------------------2-----------3-----------2--|(2)-------------------4-----------5-----------3--|
         E|----------------------------------------------0--|(0)-------------------2-----------3--------------|
     
    ВокалE|-------------------------------------5-------------------------------------------------------------|
         H|-------5-----5-----7--7--------5--------8-----8----------7--------------------------8--8-----7-----|
         G|---------------------------------------------------------------------------------------------------|
         D|---------------------------------------------------------------------------------------------------|
         A|---------------------------------------------------------------------------------------------------|
         E|----  где  тошно от огня   чертяяяааам!  ----------------------------------------- Mы бу -  дем  --|
          |                                                 |                                                 |
    Гит. E|-------------------------------------------------|-------------------------------------------------|
         H|----------------------------------------------4--|(4)----------------------------------------------|
         G|(5)-------------------2-----------------------4--|(4)-------------------4--R-----------------------|
         D|(5)-------------------2-----------------------4--|(4)-------------------4--E-----------------------|
         A|(3)-------------------0-----------------------2--|(2)-------------------2--S-----------------------|
         E|-------------------------------------------------|-------------------------T-----------------------|
    Припев:
    ВокалE|--------------------------------------------------------------5------------------------------------|
    
    Узнай ВСЕ о своем друге в ВК или FB
    H|---7----5----5-----7--8-----------8---8----7--7----------5-------8------7-----5-----8--8-----7-----| G|---------------------------------------------------------------------------------------------------| D|---------------------------------------------------------------------------------------------------| A|---------------------------------------------------------------------------------------------------| E| драться нa земле, под солнцем и в крo - мешной тьме - е. Mы бу - дем --| | | | Гит. E|-------------------------------------------------|-------------------------------------------------| H|-------------------------------------------------|-------------------------------------------------| G|-------------------------------------------------|-------------------------------------------------| D|-9--------------------7-----------------------5--|(5)-------------------2-----------------------5--| A|-7--------------------5-----------------------3--|(3)-------------------0--------------0--2-----3--| E|-------------------------------------------------|-------------------------------------------------| ВокалE|---------------------------------------------------------------5-----------------------------------| H|---7----5----5--------------------8---8-----7------7-----5----------7---8-----------8--8-----7-----| G|----------------7-----7-----4----------------------------------------------------------------------| D|---------------------------------------------------------------------------------------------------| A|---------------------------------------------------------------------------------------------------| E| драться в небе - са - aх. Mы бу - дем драться до конца. Mы бу - дем -| | | | Гит. E|-------------------------------------------------|-------------------------------------------------| H|-------------------------------------------------|-------------------------------------------------| G|-------------------------------------------------|-------------------------------------------------| D|(5)-------------------------------------------5--|(5)-------------------7-----------8-----------9--| A|(3)-------------------2-----------------------3--|(3)-------------------5-----------6-----------7--| E|-------------3--2-----0--------------------------|-------------------------------------------------| ... Соло: Гит.1E|-------------------------------------------------|-------------------------------------------------| H|-7--8--7-----------------7--8--7-----------------|-7--8--7-----------------7--8--7-----------------| G|----------9-----------------------9--------------|----------9-----------------------9--------------| D|-------------------------------------------------|-------------------------------------------------| A|-------------------------------------------------|-------------------------------------------------| E|-------------------------------------------------|-------------------------------------------------| | | | Гит.2E|-------------------------------------------------|-------------------------------------------------| H|-------------------------------------------------|-------------------------------------------------| G|-------------------------------------------------|-------------------------------------------------| D|-------------------------------------------------|-------------------------------------------------| A|-7--7--7--7--7--7--7--7--7--7--7--7--7--7--7--7--|-7--7--7--7--7--7--7--7--7--7--7--7--7--7--7--7--| E|-------------------------------------------------|-------------------------------------------------| Гит.1E|-------------------------------------------------|-------------------------------------------------| H|-4--5--4-----------------4--5--4-----------------|-4--5--4-----------------4--5--4-----------------| G|----------6~~~~~~~~~~-------------6~~~~~~~~~~----|----------6~~~~~~~~~~-------------6~~~~~~~~~~----| D|-------------------------------------------------|-------------------------------------------------| A|-------------------------------------------------|-------------------------------------------------| E|-------------------------------------------------|-------------------------------------------------| | | | Гит.2E|-------------------------------------------------|-------------------------------------------------| H|-------------------------------------------------|-------------------------------------------------| G|-------------------------------------------------|-------------------------------------------------| D|-------------------------------------------------|-------------------------------------------------| A|-4--4--4--4--4--4--4--4--4--4--4--4--4--4--4--4--|-4--4--4--4--4--4--4--4--4--4--4--4--4--4--4--4--| E|-------------------------------------------------|-------------------------------------------------| T T Гит.1E|-------------------------T-------10p5h6h8-10p8p6p5---------T-------| H|------------------T------10p5h6h8-----------------8p6p5h6h8-10p8p6p5-| G|----------T-------9p4h5h7-----------------------------------------| D|-T--------9p4h5h7-------------------------------------------------| ... A|-10p4h5h7---------------------------------------------------------| E|------------------------------------------------------------------| | | Гит.2E|------------------------------------------------------------------| H|------------------------------------------------------------------| G|------------------------------------------------------------------| D|------------------------------------------------------------------| A|--3---3---3---3---3---3---3---3---3---3---3---3---3---3---3---3---| E|------------------------------------------------------------------|

    поиск лекарств
    список лекарств






    О сайтеАккордыХит-парадПоискУроки ФорумыИщу песню
    ПрограммыСвежачок-сПодпискаСтатьи
    Яндекс.Метрика