Табулатура Ария | Это Рок гитара табулатуры уроки тексты песен Ария текст lyrics песня аккорды песни ноты нота электрогитара струна  
   А Б В Г Д Е Ж З И К Л М Н О П Р С Т У Ф Х Ч Ш Ы Э Ю Я       Разные песни
1-9 A B C D E F G H I J K L M N O P Q R S T U V W Y Z      Все исполнители in english

    



группа Ария, Табулатура песни Это Рок

Работа в Европе для граждан РФ, Украины, СНГ

  • минимальная зарплата $500.
  • виза и контракт на полгода, возможно продление
  • проживание оплачивает работодатель
  • нужен только загранпаспорт
  • оформление 190 €
  • данное предложение - отличная возможность эмигрировать в Европу и закрепиться здесь навсегда.

  • Мы свяжемся с Вами по WhatsApp или Viber и ответим на любые вопросы.
    на нашем сайте можно почитать подробнее »

    Группа: Ария - другие аккорды (629),   о группе (7 статей),   диски (18),   фотографии (92)
    Табулатура песни: Это Рок
    Просмотров: 2613
    Прислал: Сергеев Кирилл




        
    Это рок
    INTRO:
    (0:18 - 0:34)
    RIFF 1 (play 4 times)
    Gtr.1G||---------------------------------|---------------------------------||
         D||-----7-----5-----3-----2---------|-----7-----5-----3-----2---------||
         A||-0-0---0-0---0-0---0-0---0-0-3-2-|-0-0---0-0---0-0---0-0---0-0-3-2-||
         E||---------------------------------|---------------------------------||
          ||                                 |                                 ||
    Gtr.2E||-A5------------------------------|-----------------F5------E5------||
         H||---------------------------------|---------------------------------||
         G||---------------------------------|---------------------------------||
         D||-7-------------------------------|-----------------3-------2-------||
         A||-7-------------------------------|-----------------3-------2-------||
         E||-5-------------------------------|-----------------1-------0-------||
    (0:35 - 1:08)
    VERSE 1:
    VoiceE|---------------------------------|---------------------------------|
         H|---------------------------------|---------------------------------|
         G|---------------------------------|---------------------------------|
         D|----5-5----------8-5-------------|-5--5------------8-5-------------|
         A|------------8--------------------|---------8------------------7----|
         E|-V nebe    nad  nami              yarko - ye     zhalo       lu - -|
          |                                 |                                 |
    Gtr.1G|---------------------------------|---------------------------------|
         D|---------------------------------|---------------------------------|
         A|---------------------------------|---------------------------------|
         E|-3-3-3-3-3-3-3-3-3-3-3-3-3-3-3-3-|-3-3-3-3-3-3-3-3-3-3-3-3-3-3-3-3-|
     
    VoiceE|---------------------------------|---------------------------------|
         H|---------------------------------|---------------------------------|
         G|---------------------------------|---------------------------------|
         D|---7-----------------------------|---------------------------------|
         A|---------------------------------|---------------------------------|
         E|- cha.    -----------------------|---------------------------------|
          |                                 |                                 |
    Gtr.1G|---------------------------------|---------------------------------|
         D|-----7-----5-----3-----2---------|-----7-----5-----3-----2---------|
         A|-0-0---0-0---0-0---0-0---0-0-3-2-|-0-0---0-0---0-0---0-0---0-0-3-2-|
         E|---------------------------------|---------------------------------|
          |                                 |                                 |
    Gtr.2E|-A5------------------------------|-----------------F5------E5------|
         H|---------------------------------|---------------------------------|
         G|---------------------------------|---------------------------------|
         D|-7-------------------------------|-----------------3-------2-------|
         A|-7-------------------------------|-----------------3-------2-------|
         E|-5-------------------------------|-----------------1-------0-------|
     
    VoiceE|---------------------------------|---------------------------------|
         H|---------------------------------|---------------------------------|
         G|---------------------------------|---------------------------------|
         D|--5-----5----------8-5-----------|-5-----5-----------8-----5-------|
         A|------------8--------------------|--------------8---------------7--|
         E|-Me - chetsya    plamya,        stra - shen     u - dar   pa - la- |
          |                                 |                                 |
    Gtr.1G|---------------------------------|---------------------------------|
         D|---------------------------------|---------------------------------|
         A|---------------------------------|---------------------------------|
         E|-3-3-3-3-3-3-3-3-3-3-3-3-3-3-3-3-|-3-3-3-3-3-3-3-3-3-3-3-3-3-3-3-3-|
     
    VoiceE|---------------------------------|---------------------------------|
         H|---------------------------------|---------------------------------|
         G|---------------------------------|---------------------------------|
         D|---7-----------------------------|---------------------------------|
         A|---------------------------------|---------------------------------|
         E|- cha.    -----------------------|---------------------------------|
          |                                 |                                 |
    Gtr.1G|---------------------------------|---------------------------------|
         D|-----7-----5-----3-----2---------|-----7-----5-----3-----2---------|
         A|-0-0---0-0---0-0---0-0---0-0-3-2-|-0-0---0-0---0-0---0-0---0-0-3-2-|
         E|---------------------------------|---------------------------------|
          |                                 |                                 |
    Gtr.2E|-A5------------------------------|-----------------F5------E5------|
         H|---------------------------------|---------------------------------|
         G|---------------------------------|---------------------------------|
         D|-7-------------------------------|-----------------3-------2-------|
         A|-7-------------------------------|-----------------3-------2-------|
         E|-5-------------------------------|-----------------1-------0-------|
     
    VoiceE|---------------------------------|---------------------------------|
         H|---------------------------------|---------------------------------|
         G|---------------------------------|---------------------------------|
         D|---------------------------------|-7-----5---------7----5----------|
         A|--8------7-----5-8------7------5-|------------8--------------8-----|
         E|-Slov - no    bumazh - nyy,  tvoy dom   po - ly - ha - yet   og - -|
          |                                 |                                 |
    Gtr.1G|---------------------------------|---------------------------------|
         D|---------------------------------|---------------------------------|
         A|---------------------------------|---------------------------------|
         E|-1-1-1-1-1-1-1-1-1-1-1-1-1-1-1-1-|-1-1-1-1-1-1-1-1-1-1-1-1-1-1-1-1-|
     
    VoiceE|---------------------------------|---------------------------------|
         H|---------------------------------|---------------------------------|
         G|---------------------------------|---------------------------------|
         D|---7-----------------------------|---------------------------------|
         A|---------------------------------|---------------------------------|
         E|- nyom.   -----------------------|---------------------------------|
          |                                 |                                 |
    Gtr.1G|---------------------------------|---------------------------------|
         D|-----7-----5-----3-----2---------|-----7-----5-----3-----2---------|
         A|-0-0---0-0---0-0---0-0---0-0-3-2-|-0-0---0-0---0-0---0-0---0-0-3-2-|
         E|---------------------------------|---------------------------------|
          |                                 |                                 |
    Gtr.2E|-A5------------------------------|-----------------F5------E5------|
         H|---------------------------------|---------------------------------|
         G|---------------------------------|---------------------------------|
         D|-7-------------------------------|-----------------3-------2-------|
         A|-7-------------------------------|-----------------3-------2-------|
         E|-5-------------------------------|-----------------1-------0-------|
     
    VoiceE|---------------------------------|---------------------------------|
         H|---------------------------------|---------------------------------|
         G|---------------------------------|---------------------------------|
         D|---------------------------------|-7-----5----------7-----5--------|
         A|--8------7-----5-8------7----5---|------------8-----------------8--|
         E|-Noch'  na   chasah,   no   vok - rug  vsyo svet - lo    bud - to  |
          |                                 |                                 |
    Gtr.1G|---------------------------------|---------------------------------|
         D|---------------------------------|---------------------------------|
         A|---------------------------------|---------------------------------|
         E|-1-1-1-1-1-1-1-1-1-1-1-1-1-1-1-1-|-1-1-1-1-1-1-1-1-1-1-1-1-1-1-1-1-|
     
    VoiceE|---------------------------------|---------------------------------|
         H|---------------------------------|---------------------------------|
         G|---------------------------------|---------------------------------|
         D|---------------------------------|--9------------------------------|
         A|---7-----------------------------|---------------------------------|
    
    Узнай ВСЕ о своем друге в ВК или FB
    E|- dnyom. Dnyom ! -----------------------| | | | Gtr.2E|-E5------------------------------|---------------------------------| H|---------------------------------|---------------------------------| G|---------------------------------|---------------------------------| D|-2-------2-------2---------------|-2-------2-------2---------------| A|-2-------2-------2---------------|-2-------2-------2---------------| E|-0-------0-------0---------------|-0-------0-------0---------------| (1:08 - 1:42) CHORUS: VoiceE|---------------------------------|---------------------------------| H|---------------------------------|---------------------------------| G|---------------------------------|---------------------------------| D|---------------------------------|--4------------------------------| A|---7---------4---------------0---|---------------------------------| E|- Groz - nyy pro - rok -----------------------| | | | Gtr.1E|-0-----0-----0---0-----0-----0---|---------------------------------| H|---2-----2-----2---2-----2-----2-|---------------------------------| G|-----2-----2---------2-----2-----|-2-----2-----2---2-----2-----2---| D|---------------------------------|---4-----4-----4---4-----4-----4-| A|---------------------------------|-----5-----5---------5-----5-----| E|---------------------------------|---------------------------------| VoiceE|---------------------------------|---------------------------------| H|---------------------------------|---------------------------------| G|---------------------------------|---------------------------------| D|---------------------------------|---------------------------------| A|---7---------4-------0-----------|--2-------------------2-----4----| E|- vy - chis - lit' smog . My schi - | | | | Gtr.1E|-0-----0-----0---0-----0-----0---|-2-----2-----2---2-----2-----2---| H|---2-----2-----2---2-----2-----2-|---3-----3-----3---3-----3-----3-| G|-----2-----2---------2-----2-----|-----4-----4---------4-----4-----| D|---------------------------------|---------------------------------| A|---------------------------------|---------------------------------| E|---------------------------------|---------------------------------| VoiceE|---------------------------------|---------------------------------| H|---------------------------------|---------------------------------| G|---------------------------------|---------------------------------| D|---------------------------------|---------------------------------| A|---5-5-------5---5------5------7-|--8-------8----8-8-------7----5--| E|- tali, chto on nas sme - shit, kak payatz Sha - pi- | | | | Gtr.2E|-D5--------------------------E5--|-F5------------------------------| H|---------------------------------|---------------------------------| G|---------------------------------|---------------------------------| D|-----------------------------2---|-3-------------------------------| A|--5--------------------------2---|-3-------------------------------| E|--5--------------------------0---|-1-------------------------------| VoiceE|---------------------------------|---------------------------------| H|---------------------------------|---------------------------------| G|---------------------------------|---------------------------------| D|---------------------------------|---------------------------------| A|---7-----------------------------|---------------------------------| E|- to. -------------------------|---------------------------------| | | | Gtr.2E|-E5------------------------------|---------------------------------| H|---------------------------------|---------------------------------| G|---------------------------------|---------------------------------| D|-2-------2-------2---------------|-2-------2-------2---------------| A|-2-------2-------2---------------|-2-------2-------2---------------| E|-0-------0-------0---------------|-0-------0-------0---------------| (1:42 - 2:16) VERSE 2 (2:16 - 2:49) CHORUS (2:50 - 2:58) Repeat RIFF 1 ( 2 times ) (2:58 - 3:48) SOLO: E|---------------------------------|-10p9p7-------10p9p7-------10p9p7-------10p9p7-------| H|-10b12~~~~-------10b12~~~~-------|-------10p9p7-------10p9p7-------10p9p7-------10p9p7-| G|---------------------------------|---------------------------------| D|---------------------------------|---------------------------------| A|---------------------------------|---------------------------------| E|---------------------------------|---------------------------------| E|---------------------------------|---------------------------------| H|---------------------------------|---------------------------------| G|-9---------------9---------------|---7-----7-----7-----------------| D|---------------------------------|-9-7---9-7---9-7-----------------| A|---------------------------------|---------------------------------| E|---------------------------------|---------------------------------| E|-10p7-10p7-10p7-10p7-10p7-10p7-10p7-10p7-10p7-10p7-9p6-9p6-8p5-8p5-7p4-7p4-6p3-6p3--- ... --------| H|---------------------------------|---------------------------------| G|---------------------------------|---------------------------------| D|---------------------------------|---------------------------------| A|---------------------------------|---------------------------------| E|---------------------------------|---------------------------------| E|---...---------------------------|-...-----------------------------| H|---------------------------------|---------------------------------| G|---------------------------------|---------------------------------| D|---------------------------------|---------------------------------| A|---------------------------------|---------------------------------| E|---------------------------------|---------------------------------| E|---------------------------------|-------------------------12------| H|---------------------------------|---------10------12--------------| G|------------------9------11------|-12------------------------------| D|--10------12---------------------|---------------------------------| A|---------------------------------|---------------------------------| E|---------------------------------|---------------------------------| E|-11----------------------12------|-11------------------------------| H|---------------------------------|---------------------------------| G|---------------------------------|---------------------------------| D|---------------------------------|---------------------------------| A|---------------------------------|---------------------------------| E|---------------------------------|---------------------------------| E|---------------------------------|-------------------------12------| H|---------------------------------|---------10------12--------------| G|------------------9------11------|-12------------------------------| D|--10------12---------------------|---------------------------------| A|---------------------------------|---------------------------------| E|---------------------------------|---------------------------------| E|-11----------------------12------|-11------------------------------| H|---------------------------------|---------------------------------| G|---------------------------------|---------------------------------| D|---------------------------------|---------------------------------| A|---------------------------------|---------------------------------| E|---------------------------------|---------------------------------| The key changes at this point. Play the following Verse 3 and Chorus the whole tone higher than before. (3:48 - 4:22) VERSE 3 (4:22 - 5:33) CHORUS couple of times (5:33 - 5:50) OUTRO

    лекарство в аптеке
    список лекарств






    О сайтеАккордыХит-парадПоискУроки ФорумыИщу песню
    ПрограммыСвежачок-сПодпискаСтатьи
    Яндекс.Метрика