Табулатура Ария | Обман гитара табулатуры уроки тексты песен Ария текст lyrics песня аккорды песни ноты нота электрогитара струна  
   А Б В Г Д Е Ж З И К Л М Н О П Р С Т У Ф Х Ч Ш Ы Э Ю Я       Разные песни
1-9 A B C D E F G H I J K L M N O P Q R S T U V W Y Z      Все исполнители in english

    



группа Ария, Табулатура песни Обман

Продолжаем грести бабос на ботах в Telegram.
Только в этот раз есть вариант автоматизировать это дело, привлекая рефералов. Вы можете заработать если »

Группа: Ария - другие аккорды (629),   о группе (7 статей),   диски (18),   фотографии (92)
Табулатура песни: Обман
Просмотров: 3113
Прислал: Кирилл




    
Ария - Обман
Прислал:Сергеев Кирилл
Подобрал:Сергеев Кирилл
Встепление:
Git1E|-----------------|-----------------|-----------------|----------------------|
    B|-----------------|-----------------|-----------------|----------------------|
    G|-----------------|-----------------|-----------------|----------------------|
    D|-----2---2---2---|-----2---2---2---|-----2---2---2---|-----2--------2-------|
    A|---2---2---2---2-|---2---2---2---2-|---2---2---2---2-|---2---2----2---2-----|
    E|-0---------------|-0---------------|-0---------------|-0--------1-----------|
Git2E|-----------------|-----------------|-----------------|----------------------|
    B|-----------------|-----------------|-----------------|----------------------|
    G|-----------------|-----------------|-----------------|----------------------|
    D|-----2---2---2---|-----2---2---2---|-----2---2---2---|-----2--------2-------|
    A|---2---2---2---2-|---2---2---2---2-|---2---2---2---2-|---2---2----2---2-----|
    E|-0---------------|-0---------------|-0---------------|-0--------1-----------|
Git1E|-----------------|-----------------|-----------------|----------------------|

Продолжаем грести бабос на ботах в Telegram.
Только в этот раз есть вариант автоматизировать это дело, привлекая рефералов. Вы можете заработать если »

B|-----------------|-----------------|-----------------|----------------------| G|-----------------|-----------------|-----------------|----------------------| D|-----2---2---2---|-----2---2---2---|-----2---2---2---|-----2--------2-------| A|---2---2---2---2-|---2---2---2---2-|---2---2---2---2-|---2---2----2---2-----| E|-0---------------|-0---------------|-0---------------|-0--------1--------0--| Git2E|-----0---0---0---|-----0---0---0---|-----0---0---0---|-----0--------0-------| B|---0---0---0---0-|---0---0---0---0-|---0---0---0---0-|---0---0----0---0-----| G|-----------------|-----------------|-----------------|----------------------| D|-2---------------|-2---------------|-2---------------|-2--------3--------2--| A|-----------------|-----------------|-----------------|----------------------| E|-----------------|-----------------|-----------------|----------------------|

искать в аптеке
список лекарств

Краски для пинстрайпинга своими руками

Продажа и покупка. Для краски

steelbrush.ru








О сайтеАккордыХит-парадПоискУроки ФорумыИщу песню
ПрограммыСвежачок-сПодпискаСтатьи
Яндекс.Метрика