Табулатура Ария | Беспечный ангел  (4) гитара табулатуры уроки тексты песен Ария текст lyrics песня аккорды песни ноты нота электрогитара струна  
   А Б В Г Д Е Ж З И К Л М Н О П Р С Т У Ф Х Ч Ш Ы Э Ю Я       Разные песни
1-9 A B C D E F G H I J K L M N O P Q R S T U V W Y Z      Все исполнители in english

    



группа Ария, Табулатура песни Беспечный ангел (4)

Продолжаем грести бабос на ботах в Telegram.
Только в этот раз есть вариант автоматизировать это дело, привлекая рефералов. Вы можете заработать если »

Группа: Ария - другие аккорды (629),   о группе (7 статей),   диски (18),   фотографии (92)
Табулатура песни: Беспечный ангел (4)
Просмотров: 3593
Прислал: Guitaruga (Guitaruga@bk.ru)




    
e-------------------------------------------------
h------------------------------------0------------
g--------------------------------0-------0-------0
d----------------------------2---------------2----
a------------------------2------------------------
e---3---5---7---10---0----------------------------
e--------------------------------------------------
h---------------1----------------------------------
g-----------0-----------0-------0------------------
d-------2-----------2-------2----------------------
a---3----------------------------------------------
e--------------------------------------------------
e---------------------------------------------------
h---------------------------------------------------
g---------------3-------------------------------3---
d-----------0-----------0-------0-----------0-------
a-------0-----------0-------0-----------0-----------
e---3-------------------------------3---------------
e-------------------------------------------------
h------------------------------------0------------
g--------------------------------0-------0-------0
d----------------------------2---------------2----
a------------------------2------------------------
e---3---5---7---10---0----------------------------
e--------------------------------------------------
h---------------1----------------------------------
g-----------0-----------0-------0------------------
d-------2-----------2-------2----------------------
a---3----------------------------------------------
e--------------------------------------------------
e---------------2---2h3p2---------------------------
h-----------3---------------3-----------------------

Продолжаем грести бабос на ботах в Telegram.
Только в этот раз есть вариант автоматизировать это дело, привлекая рефералов. Вы можете заработать если »

g-------2-----------------------2------------------- d---0----------------------------------------------- a--------------------------------------------------- e--------------------------------------------------- e---------------2---2h3p2--------------------------- h-----------3---------------3----------------------- g-------2-----------------------2------------------- d---0----------------------------------------------- a--------------------------------------------------- e--------------------------------------------------- Дальше аккорды A и G играть перебором(бас-3-2-3-1-3-2-3) e---------------2---2h3p2--------------------------- h-----------3---------------3----------------------- g-------2-----------------------2------------------- d---0----------------------------------------------- a--------------------------------------------------- e--------------------------------------------------- Аккорд Em перебором e---------------2---2h3p2--------------------------- h-----------3---------------3----------------------- g-------2-----------------------2------------------- d---0----------------------------------------------- a--------------------------------------------------- e--------------------------------------------------- Em C перебором D-Dsus4-Dsus4-Dsus4-D - Боем Припев боем: Em-C-D Am-B-Am C-D-C-D Am-C-G

искать в аптеке
список лекарств






О сайтеАккордыХит-парадПоискУроки ФорумыИщу песню
ПрограммыСвежачок-сПодпискаСтатьи
Яндекс.Метрика