Табулатура Metallica | Purify гитара табулатуры уроки тексты песен Metallica текст lyrics песня аккорды песни ноты нота электрогитара струна  
   А Б В Г Д Е Ж З И К Л М Н О П Р С Т У Ф Х Ч Ш Ы Э Ю Я       Разные песни
1-9 A B C D E F G H I J K L M N O P Q R S T U V W Y Z      Все исполнители in english

    



группа Metallica, Табулатура песни Purify

Группа: Metallica - другие аккорды (225),   о группе (32 статей),   диски (11),   фотографии (49)
Табулатура песни: Purify
Просмотров: 3195
Подобрал: xAL (xal@akkords.ru)




    
Guitar tuning: CGCFAD

Riff 1
    PM..   .     .
D||--------------------------------|
A||--------------------------------|
F||--------------------------------|
C||----------------3--3-0-3/5-0-0--|
G||--0-0-3-0-3-3-0-3--3-0-3/5-0-0--|
C||--0-0-3-0-3-3-0-3--3-0-3/5-0-0--| Play 4x by Gtr1, then play 4x by both guitars

Riff 2
PM........................
--------------------------|
--------------------------|
--------------------------|
--------------------------|
--0-0---0-0---0-0---0-0---|
--0-0---0-0---0-0---0-0---| Play 4x

Riff 3
PM.......
--------------------|
--------------------|
--------------------|
-------------0------|
--5-6-5-6-7--0------|
--5-6-5-6-7--0------| Play 12x

Riff 4
|--------------------------|--------------------------|
|--------------------------|--------------------------|
|--------------------------|--------------------------|
|--7--7--7--7--7--7--7--7--|--6--6--6--6--6--6--6--6--|
|--7--7--7--7--7--7--7--7--|--6--6--6--6--6--6--6--6--|
|--7--7--7--7--7--7--7--7--|--6--6--6--6--6--6--6--6--|

--------------------------|--------------------------|
--------------------------|--------------------------|
--------------------------|--------------------------|
--5--5--5--5--5--5--5--5--|--6--6--6--6--6--6--6--6--|
--5--5--5--5--5--5--5--5--|--6--6--6--6--6--6--6--6--|
--5--5--5--5--5--5--5--5--|--6--6--6--6--6--6--6--6--|

Riff 5
PM...       PM..
------------------------|
------------------------|
------------------------|
--2-1-3------2-1-3------|
--2-1-3------2-1-3------|
--2-1-3------2-1-3------| Play 2x

Riff 4
Riff 5 (4x)
Riff 1 (7x)
Riff 3 (12x)
Riff 4
Riff 5 (2x)
Riff 4
Riff 5 (4x)
Riff 1 (3x)
Riff 2 (4x)

Riff 6
PM............................ (slowly release) .....
----------------------------------|----------------------------------|
----------------------------------|----------------------------------|
----------------------------------|----------------------------------|
----------------------------------|----------------------------------|
--0-0-3-0-3-0-0-3-0-0-3-0-3-0-0-0-|--0-0-3-0-3-0-0-3-0-0-3-0-3-0-0-0-|
--0-0-3-0-3-0-0-3-0-0-3-0-3-0-0-0-|--0-0-3-0-3-0-0-3-0-0-3-0-3-0-0-0-|

Riff 7
Узнай ВСЕ о своем друге в ВК или FB
Gtr1 |---------------------------------| |---------------------------------| |---------------------------------| |--0-0-7h5-7-7-5-7-7-5-7h5-7/10---| |---------------------------------| |---------------------------------| | | Gtr2 |---------------------------------| |---------------------------------| |---------------------------------| |---------------------------------| |------5h3-5-5-3-5-5-3-5h3-5/8----| |--0-0----------------------------| Play 5x Riff 8 -------------------------|---------------------------------| -------------------------|---------------------------------| ------------------5------|---------------------------------| --7--7--7-7---3---5--3---|--5--0---0-----------------------| --7--7--7-7---3---3--3---|--5--0---0---12-10-12h10-12/15---| --7--7--7-7---3------3---|--5--0---0---12-10-12h10-12/15---| Play 2x Riff 9 ----------------------------| ----------------------------| ----------------------------| --3--0-3h5-0---3--3-3h5-0---| --3--0-3h5-0---3--3-3h5-0---| --3--0-3h5-0---3--3-3h5-0---| Play 4x Riff 8 (2x) Riff 9 (10x) Riff 7 (4x) Riff 6 Riff 4 Riff 4 (4x) Riff 1 (2x) Then Gtr1 is dumb, and Gtr2 plays C--3--- G--3--- C--3--- Riff 10 PM...... ---------------------| ---------------------| ---------------------| ---------------------| ------3---5-0--0--0--| --3h5-------0--0--0--| Play 2x by Gtr 1 and then 2x by both guitars Riff 11 PM...... ------------------------| ------------------------| ------------------------| --3--3--3---------------| --3--3--3----5-0--0--0--| ---------------0--0--0--| Play 2x Riff 10 (4x) Riff 11 (2x) Riff 10 (4x) Riff 11 ---------------------|| ---------------------|| ---------------------|| --3--3--3------------|| --3--3--3----5-0-----|| ---------------0-----||

найти лекарство
список лекарств

Багажник на уаз патриот ижевск

Тюнинг автомобилей УАЗ. Технические характеристики моделей УАЗа

skoleya.ru

лечение зубов под микроскопом долгопрудный

estetdent-stom.ru

Тут

Онлайн-заявка на куплю/продажу. Сайт болельщиков (Москва

avto-lombardi.ru








О сайтеАккордыХит-парадПоискУроки ФорумыИщу песню
ПрограммыСвежачок-сПодпискаСтатьи
Яндекс.Метрика