Табулатура Metallica | Phantom Lord  (2) гитара табулатуры уроки тексты песен Metallica текст lyrics песня аккорды песни ноты нота электрогитара струна  
   А Б В Г Д Е Ж З И К Л М Н О П Р С Т У Ф Х Ч Ш Ы Э Ю Я       Разные песни
1-9 A B C D E F G H I J K L M N O P Q R S T U V W Y Z      Все исполнители in english

    



группа Metallica, Табулатура песни Phantom Lord (2)

Группа: Metallica - другие аккорды (225),   о группе (32 статей),   диски (11),   фотографии (49)
Табулатура песни: Phantom Lord (2)
Просмотров: 2588
Прислал: DiaSpar (diaspar@i.com.ua)




    
#----------------------------------PLEASE NOTE---------------------------------#
#This file is the author's own work and represents their interpretation of the #
#song. You may only use this file for private study, scholarship, or research. #
#------------------------------------------------------------------------------##
                                  PHANTOM LORD
                            As recorded by Metallica
                        (From the 1983 Album KILL'EM ALL)
Words and Music by James Hetfield, Lars Ulrich & Dave Mustaine
          B5                   A5                   C5                   G5
      x 2 4 4 x x          x 0 2 2 x x          x 3 5 5 x x          3 5 5 x x x
          E5                   F#5                  D5                  E5VII
      0 2 x x x x          2 4 4 x x x          x 5 7 7 x x          0 7 9 9 x x
         A5VII                 G5V                 F#5IV             E5(type 2)
      x 7 7 x x x          x 5 5 x x x          x 4 4 x x x          0 2 2 x x x
Gtr I (E A D G B E) - 'James'
Gtr II (E A D G B E) - 'James II'
Gtr III (E A D G B E) - 'Kirk'
Gtr IV (E A D G B E) - 'KirkII'
Gtr V (E A D G B E) - 'Kirk Clean'
Gtr VI (E A D G B E) - 'James clean'
 Intro
  Moderate Rock Q=108
 4/4                                        3/4
  Gtr I    Gtrs I, II
  <
  W            H.      e E   H.      e e     H.
|----------||--------------|--------------||-------||
|----------||o-------------|-------------o||-------||
|----------||--2-------2---|-2-------2-2--||-2-----||
|----------||--2-------2---|-2-------2-2--||-2-----||
|-0--------||o-0-------0---|-0-------0-0-o||-0-----||
|----------||--------------|--------------||-------||

                                  Faster Q=152
                                                  $
                                  B5
   4/4
                                  Gtr III
    W             W                H     H
                                   |
                                   /
    H.      e E   H.      e e      H.       +E. S
||--------------|--------------||-----------------|
||o-------------|-------------o||-----------------|
||--4-------4---|-4-------4-4--||--4--------(4)---|
||--4-------4---|-4-------4-4--||--4--------(4)-7-|
||o-2-------2---|-2-------2-2-o||--2--------(2)-5-|
||--------------|--------------||-----------------|
|
|   Gtr III                                       G
|   W             W                W
||--------------|--------------||-----------------|
||o-------------|-------------o||-----------------|
||--------------|--------------||-(9)-------------|
||--------------|--------------||-----------------|
||o-------------|-------------o||-(2)-------------|
||--------------|--------------||-(0)-------------|

   W
   E  S S +S   S  S  S  E S S E E
|---------------------------------|
|---------------------------------|
|-----------------------------7-9-|
|--7--9-9-(9)p=7--9p=7--9-9-9-5-7-|
|--5--7-7-(7)-(7)-7-(7)-7-7-7-----|
|---------------------------------|
|
|tr III
|  ~~~
| +W
|---------------------------------|
|---------------------------------|
|-(9)-----------------------------|
|---------------------------------|
|-(2)-----------------------------|
|-(0)-----------------------------|

  E S S +S   S  S  S  E E E E    E   S  S +S   S    S    S  E S S E E
|-----------------------------|---------------------------------------|
|-----------------------------|---------------------------------------|
|-----------------------------|-----------------------------------7-9-|
|-7-9-9-(9)p=7--9p=7--9-9-7---|--7---9--9-(9)p=7----9p===7--9-9-9-5-7-|
|-5-7-7-(7)-(7)-7-(7)-7-7-5---|--5---7--7-(7)-(7)---7---(7)-7-7-7-----|
|-----------------------------|---------------------------------------|
|
| W                             +W
|-----------------------------|---------------------------------------|
|-----------------------------|---------------------------------------|
|-----------------------------|--9--<9>-----------(<9>)---------------|
|-----------------------------|---------------------------------------|
|-2---------------------------|-(2)-----------------------------------|
|-0---------------------------|-(0)-----------------------------------|
                                 E   Q.            +H

  E  S S +S   S  S  S  E S S E E
|----------------------------------||
|----------------------------------||
|----------------------------------||
|-7--9-9-(9)p=7--9p=7--9-9-9-7-----||
|-5--7-7-(7)-(7)-7-(7)-7-7-7-5-----||
|----------------------------------||
|
| W
|----------------------------------||
|----------------------------------||
|----------------------------------||
|-x-------------------------------||
|-x-------------------------------||
|-x-------------------------------||

                                                                     Verse 1, 2, 3
                                                                      $$
    E S S +S   S  S  S  E S S E E   E S S +S   S  S  S  E S S E E  4x W
||--------------------------------|--------------------------------||------|
||o-------------------------------|-------------------------------o||------|
||----------------------------7-9-|--------------------------------||-2----|
||--7-9-9-(9)p=7--9p=7--9-9-9-5-7-|-7-9-9-(9)p=7--9p=7--9-9-9-7----||-2----|
||o-5-7-7-(7)-(7)-7-(7)-7-7-7-----|-5-7-7-(7)-(7)-7-(7)-7-7-7-5---o||-0----|
||--------------------------------|--------------------------------||------|

  H    E. s +S  E.     E S S +S   S  S  S  E S S E E
|------------------||--------------------------------|
|------------------||o-------------------------------|
|-5----4-----------||----------------------------7-9-|
|-5----4--5-(5)-5--||--7-9-9-(9)p=7--9p=7--9-9-9-5-7-|
|-3----2--5-(5)-5--||o-5-7-7-(7)-(7)-7-(7)-7-7-7-----|
|---------3-(3)-3--||--------------------------------|

  E S S +S   S  S  S  E S S E E
|---------------------------------||
|--------------------------------o||
|---------------------------------||
|-7-9-9-(9)p=7--9p=7--9-9-9-7-----||
|-5-7-7-(7)-(7)-7-(7)-7-7-7-5----o||
|---------------------------------||

  W          H    E. s +S  E.     E S S +S   S  S  S  E S S E E
|----------|------------------||--------------------------------|
|----------|------------------||o-------------------------------|
|-2--------|-5----4-----------||----------------------------7-9-|
|-2--------|-5----4--5-(5)-5--||--7-9-9-(9)p=7--9p=7--9-9-9-5-7-|
|-0--------|-3----2--5-(5)-5--||o-5-7-7-(7)-(7)-7-(7)-7-7-7-----|
|----------|---------3-(3)-3--||--------------------------------|

  E S S +S   S  S  S  E S S E E
|---------------------------------||
|--------------------------------o||
|---------------------------------||
|-7-9-9-(9)p=7--9p=7--9-9-9-7-----||
|-5-7-7-(7)-(7)-7-(7)-7-7-7-5----o||
|---------------------------------||

 Chorus
  PM                      PM
  E E +S  E. E. S +E  E   E E +S  E. E. S +E  E   E E +S  E. E. S +E  E
|-----------------------|-----------------------|-----------------------|
|-----------------------|-----------------------|-----------------------|
|-----------------------|-----------------------|-----------------------|
|---7-(7)-5--7--4-(4)-5-|---7-(7)-5--7--4-(4)-5-|---7-(7)-5--7--4-(4)-5-|
|---7-(7)-5--7--4-(4)-5-|---7-(7)-5--7--4-(4)-5-|---7-(7)-5--7--4-(4)-5-|
|-0-5-(5)-3--5--2-(2)-3-|-0-5-(5)-3--5--2-(2)-3-|-0-5-(5)-3--5--2-(2)-3-|

                          PM                      PM
  E E +S  E. E. S +E  E   E E +S  E. E. S +E  E   E E +S  E. E. S +E  E
|-----------------------|-----------------------|-----------------------|
|-----------------------|-----------------------|-----------------------|
|-----------------------|-----------------------|-----------------------|
|---7-(7)-5--7--4-(4)-5-|---7-(7)-5--7--4-(4)-5-|---7-(7)-5--7--4-(4)-5-|
|---7-(7)-5--7--4-(4)-5-|---7-(7)-5--7--4-(4)-5-|---7-(7)-5--7--4-(4)-5-|
|-0-5-(5)-3--5--2-(2)-3-|-0-5-(5)-3--5--2-(2)-3-|-0-5-(5)-3--5--2-(2)-3-|

                                         To Coda
                                         To Coda
                                                G
  PM                      PM
  E E +S  E. E. S +E  E   E E +S  E. E. S +E  E
|-----------------------|-----------------------|
|-----------------------|-----------------------|
|-----------------------|-----------------------|
|---7-(7)-5--7--4-(4)-5-|---7-(7)-5--7--4-(4)-5-|
|---7-(7)-5--7--4-(4)-5-|---7-(7)-5--7--4-(4)-5-|
|-0-5-(5)-3--5--2-(2)-3-|-0-5-(5)-3--5--2-(2)-3-|
|
|                                               G
| W                       W
|-----------------------|-----------------------|
|-----------------------|-----------------------|
|-----------------------|-----------------------|
|-----------------------|-----------------------|
|-----------------------|-----------------------|
|-----------------------|-----------------------|

                                D.S. al Coda
 trs I, II
   q       Q            Q          E        E
|---------------------------------------------||
|---------------------------------------------||
|---------------------------------------------||
|---------------------------------------------||
|--2----------------------------------------2-||
|--0----------------------------------------0-||
|
|tr III
|  S  S S  S  S S  S  S S  S  S S  S  S S S
|-12-10-9----10-9-------9---------------------||
|---------12------12-10---12-10-9-12-10-9-----||
|-----------------------------------------9---||
|---------------------------------------------||
|---------------------------------------------||
|---------------------------------------------||

  &
  E5
  Gtr I
   q              Q              H
   |
   /
  Gtr III
   |--3--|        |--3--|        |--3--|        |--3--|
   S  S  S  S  S  S  S  S  S  S  S  S  S  S  S  S  S  S  E
|-22p20p17----17-22p20p17----17-22p20p17----17-22p20p17----||
|----------21-------------20-------------20-------------22-||
|----------------------------------------------------------||
|----------------------------------------------------------||
|----------------------------------------------------------||
|----------------------------------------------------------||

        C5            B5  C5         F#5     G5              C5       B5       C5       F#5      G5
   E    E          S  E S  E       S S +E    E          E     E     S  E     S  E     S  S  +E     E
   |    |             |    |         |  |    |          |     |        |        |        |   |     |
   o    /             /    /         /  /    /          o     /        /        /        /   /     /
                   ~~~~~      ~~~~~~~~~~~~~~~
   E.      S      +Q       S  E.        E.      T  T    S  S  S  S  S  S  S  S  S  S  S  S  +E     S  S
|-22b24---22b24==(22)r====22-22b24-----22b24---22p19-|----19-22p19-----------------------------------12-|
|----------------------------------------------------|-22----------22-19----19-22p19-------------/15----|
|----------------------------------------------------|-------------------21----------21-19-(19)--------|
|----------------------------------------------------|--------------------------------------------------|
|----------------------------------------------------|--------------------------------------------------|
|----------------------------------------------------|--------------------------------------------------|

        C5       B5       C5       F#5      G5
   E     E     S  E     S  E     S  S +E     E
   |     |        |        |        |  |     |
   o     /        /        /        /  /     /
   S  S  S  S  S  S  S  S  S  S  S  S  S  S  S  S
|-15-12----12-15-12-------------------------------|
|-------15----------15-12----12-15-12-------------|
|-------------------------14----------14-12----12-|
|-------------------------------------------14----|
|-------------------------------------------------|
|-------------------------------------------------|

        C5           B5        C5      F#5  G5             G5       F#5      G5       C5       B5
   E    E         S  E       S  E    S S +E   E       E     E     S  E     S  E     S  S +E     E
   |    |            |          |      |  |   |       |     |        |        |        |  |     |
   o    /            /          /      /  /   /       o     /        /        /        /  /     /
                                ~~~~~
   E.      S     +E     E       Q.            S  S    S  S  S  S  S  S  S  S  S  S  S  S  S  S  S  S
|-------------------------------------------/14-15-|-17p14-15----------------------------------------|
|-15------15----(15)---15------15------------------|----------17-19p15-17-14-15p14----14-------------|
|-14b16---14b16-(14)---14b16---14b16---------------|-------------------------------16----16-14-13-14-|
|--------------------------------------------------|-------------------------------------------------|
|--------------------------------------------------|-------------------------------------------------|
|--------------------------------------------------|-------------------------------------------------|

           G5          F#5    G5    C5   B5
   E        E        S E    S E   S S +E E
   |        |          |      |     |  | |
   o        /          /      /     /  / /
                          PM|
   |--3--|  |--3--|
   S  S  S  S  S  S  E    S S S S S S  E E
|-------------------------------------------|
|-------------------------------------------|
|-16p14p13-14p13p11-13---11-9-8h9p8---------|
|-----------------------------------9-------|
|--------------------------------------9-9-|
|-------------------------------------------|

     G5    F#5   G5    C5     B5          G5     F#5   G5       C5    B5
   E E   S E   S E   S S +E   E     E      E   S E  S   E     S S +E  E
   | |     |     |     |  |   |     |      |     |      |       |  |  |
   o /     /     /     /  /   /     o      /     /      /       /  /  /
                                               T
   E S S S S S S S S S S  S S S S   E     +E   S E +S  +S  E.     +E.    S
|---------------------------------|-------------------------------------12---|
|---------------------------------|------------------------------------------|
|---------------------------7-9p7-|-9b10==(9)-17p9-(9)r(9)-7------(7)--------|
|------------7-7-9p7---7--9-------|------------------------------------------|
|----5-5-7s9---------9------------|------------------------------------------|
|-/7------------------------------|------------------------------------------|

           C5             B5              C5             F#5           G5
   E        E        S    E          S     E        S    S    +E        E
   |        |             |                |             |     |        |
   o        /             /                /             /     /        /
   T        T        T          T       T  T        T          T        T
   |--3--|  |--3--|  |---3---|  |---3---|  |--3--|  |---3---|  |--3--|  |--3--|
   S  S  S  S  S  S  S  S    S  S  S    S  S  S  S  S  S    S  S  S  S  S  S  S
|-19p15p12-19p15p12-19p15p==12-19p12---19-20p15p12-20p15p==12-20p15p12-20p15p12-|
|-------------------------------------------------------------------------------|
|-------------------------------------------------------------------------------|
|-------------------------------------------------------------------------------|
|-------------------------------------------------------------------------------|
|-------------------------------------------------------------------------------|

           C5             B5              C5             F#5           G5
   E        E        S    E          S     E        S    S    +E        E
   |        |             |                |             |     |        |
   o        /             /                /             /     /        /
   T        T        T          T          T        T          T        T
   |--3--|  |--3--|  |---3---|  |---3---|  |--3--|  |---3---|  |--3--|  |--3--|
   S  S  S  S  S  S  S  S    S  S  S    S  S  S  S  S  S    S  S  S  S  S  S  S
|-22p15p12-22p15p12-22p15p==12-22p15p==12-20p15p12-20p15p==12-20p15p12-20p15p12----|
|----------------------------------------------------------------------------------|
|----------------------------------------------------------------------------------|
|----------------------------------------------------------------------------------|
|----------------------------------------------------------------------------------|
|----------------------------------------------------------------------------------|

           C5             B5              C5             F#5           G5
   E        E        S    E          S     E        S    S    +E        E
   |        |             |                |             |     |        |
   o        /             /                /             /     /        /
   T        T        T       T  T          T     T  T          T     T  T
   |--3--|  |--3--|  |---3---|  |---3---|  |--3--|  |---3---|  |--3--|  |--3--|
   S  S  S  S  S  S  S  S    S  S  S    S  S  S  S  S  S    S  S  S  S  S  S  S
|-18p12h18-19p15p12-20p12---20-20p15p==12-22p12-22-22p15p==12-20p12-20-20p15p12-|
|-------------------------------------------------------------------------------|
|-------------------------------------------------------------------------------|
Узнай ВСЕ о своем друге в ВК или FB
|-------------------------------------------------------------------------------| |-------------------------------------------------------------------------------| |-------------------------------------------------------------------------------| C5 B5 C5 F#5 G5 E E S E S E S S +E E | | | | | | | o / / / / / / T T T T T T T |--3--| |--3--| |---3---| |---3---| |--3--| |---3---| |--3--| S S S S S S S S S S S S S S S S S S S S S +E |-19p15p12-20p15p12-19p15p==12-20p15p==12-19p15p12-20p15p==12-19p15p12-(12)--| |----------------------------------------------------------------------------| |----------------------------------------------------------------------------| |----------------------------------------------------------------------------| |----------------------------------------------------------------------------| |----------------------------------------------------------------------------| G5 F#5 G5 C5 B5 E E S E S E S S +E E | | | | | | | o / / / / / / |--3--| S E T T S S S S S S S S S S S +S S |-------12---15p12-------12-15p12------------------------------| |-15b17------------15b17----------15-12----12-15p12------------| |---------------------------------------14----------14-(14)-12-| |--------------------------------------------------------------| |--------------------------------------------------------------| |--------------------------------------------------------------| G5 F#5 G5 C5 B5 E E S E S E S S +E E | | | | | | | o / / / / / / S S S S S S S S S S S S S S S S |-------------------------------------------------| |-------------------------------------------------| |-12-12-14p12-------------------------------------| |-------------14-12----12-14p12-------------------| |-------------------14----------14-12-10----------| |----------------------------------------12-12-12-| G5 F#5 G5 C5 B5 G5 F#5 G5 C5 B5 E E S E S E S S +E E E E S E S E S S +E E | | | | | | | | | | | | | | o / / / / / / o / / / / / / S S S S S S S S S S S S S S S S S S S S S S S S S S S S E +S S |----------------------------------|-----------------------------------------| |----------------------------------|---------7-10-7--------------------------| |----------------------------7-9p7-|-x-7b9-9--------9-7---7-9p7--9b11r(9)p7--| |-------------7-7-9p7---7--9-------|--------------------9--------------------| |-----5-7-7s9---------9------------|-----------------------------------------| |-5s7------------------------------|-----------------------------------------| Slower Q=66 Gtrs I, II, III, IV Gtrs V, VI ~~~~~ PM| Q Q H S S S S S S S S S S S S S S S S 8x |-----------------||-----------------------------------|| |-----------------||o-------------------------------0-o|| |-----------------||------0-------0-------0------------|| |--9--7--2--1-----||--------2-------2-------2-----2----|| |-10--9-----------||o---2-------2-------0-------0-----o|| |-------------3-2-||--0-------3-------2-------1--------|| Q Q Q E S S Faster Q=96 H=H Faster Q=152 Gtrs I, II PM----------------------------| S S S S S S S S S S S S S S S S 4x Q Q Q Q Q Q Q Q W ||-----------------------------------||-------------|-------------|------| ||o---------------------------------o||-------------|-------------|------| ||-----------------------------------||-------------|-------------|-2----| ||-----------------------------------||-------------|-------------|-2----| ||o-2-2-2-2-2-2-2-2-0-0-0-0-0-0-0-0-o||-2--2--2--2--|-2--2--2--2--|-0----| ||--0-0-0-0-3-3-3-3-2-2-2-2-1-1-1-1--||-0--0--0--0--|-0--0--0--0--|------| C5 B5G5 Gtr I |--3--| H Q Q Q S S S S S S S S S S S S S S S S | | | | | | | | | | | | | | | | | | | | / / / / o / / / / / / / / / / / / / / / Gtr III H Q E S S S S S S S S S S S S S S S S S S |------------------12-|-15p12-12-15p12-12-12----------------------------------| |--------------/15----|----------------------15-------12-15p12-------12-15p12-| |---------------------|-------------------------14b16----------14b16----------| |---------------------|-------------------------------------------------------| |---------------------|-------------------------------------------------------| |---------------------|-------------------------------------------------------| S S S S S S S S S S S S S S S S | | | | | | | | | | | | | | | | / / / / / / / / / / / / / / / / S S S S S S S S S S S S S E. |-15-12-----------------------------------------------| |-------15b17-15-------12-12-15-----------------------| |----------------14b16----------14-12----12-14-12s====| |-------------------------------------14--------------| |-----------------------------------------------------| |-----------------------------------------------------| A5 C5 B5G5 |-3-| W H Q Q Q S S S S S S S S S S S S S S S S | | | | | | | | | | | | | | | | | | | | | / / / / / o / / / / / / / / / / / / / / / TP TP TP TP Q Q H W Q Q Q E T T S |-------------|-------------|-/22-------/22-------/22-------/22---15h17p15-| |-------------|-------------|--------------------------------------------------| |-9----------|-------------|--------------------------------------------------| |-------------|-------------|--------------------------------------------------| |-------------|-------------|--------------------------------------------------| |-------------|-------------|--------------------------------------------------| S S S S S S S S S S S S S S S S | | | | | | | | | | | | | | | | / / / / / / / / / / / / / / / / TP TP E Q. E S T T Q |-----22-----------12---7-8p7p5--------| |-----------------------------------------| |-----------------------------------------| |-----------------------------------------| |-----------------------------------------| |-----------------------------------------| A5 C5 B5G5 |-3-| W H Q Q Q | | | | | / / / / / W W |----------|-------------| |----------|-------------| |----------|-------------| |----------|-------------| |----------|-------------| |----------|-------------| S S S S S S S S S S S S S S S S | | | | | | | | | | | | | | | | o / / / / / / / / / / / / / / / |----3----| E S S E E E S S S S S S S S |------12-15------12---12---15-12-------15-12-------| |-15---------15-------------------15-12-------15-12-| |---------------------------------------------------| |---------------------------------------------------| |---------------------------------------------------| |---------------------------------------------------| A5 C5 B5G5 |-3-| S S S S S S S S S S S S S S S S W H Q Q Q | | | | | | | | | | | | | | | | | | | | | / / / / / / / / / / / / / / / / / / / / / S S S S S S S S Q. +E W W |-----------------------------------------------|----------|--------------| |-12-12-15p12-----------------------------------|----------|--------------| |-------------14-12----12-14------------(14)---|----------|--------------| |-------------------14--------------------------|----------|--------------| |-----------------------------------------------|----------|--------------| |-----------------------------------------------|----------|--------------| S S S S S S S S S S S S S S S S | | | | | | | | | | | | | | | | o / / / / / / / / / / / / / / / S S S S S S S S S S S S S S S S |-------------------------------------------------------| |-------12-15p12-17p12----12-15p12-17p12-------12-15p12-| |-14b16----------------14----------------14b16----------| |-------------------------------------------------------| |-------------------------------------------------------| |-------------------------------------------------------| S S S S S S S S S S S S S S S S | | | | | | | | | | | | | | | | / / / / / / / / / / / / / / / / S S S S S S S S S S S S S S S S |-------------------------------------------------------| |-17p12-------12-15p12-17p12-------12-15p12-17p12-12-12-| |-------14b16----------------14b16----------------------| |-------------------------------------------------------| |-------------------------------------------------------| |-------------------------------------------------------| E5 q Q H | / S S S S S S S S S S S S S S S S |-15p12----12-15p12----------------------------------| |-------15----------15-12-------12-15p12-------------| |-------------------------14b16----------14-12----14-| |----------------------------------------------14----| |----------------------------------------------------| |----------------------------------------------------| | | W |----------------------------------------------------| |----------------------------------------------------| |----------------------------------------------------| |----------------------------------------------------| |----------------------------------------------------| |----------------------------------------------------| W W S S S S S S S S S S S S E S S H +Q Q |----------------------------------------------|--------------------------------------| |----------------------------------------------|--------------------------------------| |-12-12-14p12----------------------------------|--------------------------------------| |-------------14p12----12-14p12----------------|--------------------------------------| |-------------------14----------14-12-10-12p10-|--------------------------------------| |----------------------------------------------|-12-------------------(12)-----------| | | Gtr I | W E S S +S S S S E S S E E |----------------------------------------------|--------------------------------------| |----------------------------------------------|--------------------------------------| |----------------------------------------------|--------------------------------7-9---| |----------------------------------------------|--7-9-9-(9)p=7--9p=7----9---9-9-5-7---| |----------------------------------------------|--5-7-7-(7)-(7)-7-(7)---7---7-7-------| |----------------------------------------------|--------------------------------------| Gtr I E S S +S S S S E S S E E E S S +S S S S E S S E E |-------------------------------|-------------------------------| |-------------------------------|-------------------------------| |-------------------------------|---------------------------7-9-| |-7-9-9-(9)p=7--9p=7--9-9-9-7---|-7-9-9-(9)p=7--9p=7--9-9-9-5-7-| |-5-7-7-(7)-(7)-7-(7)-7-7-7-5---|-5-7-7-(7)-(7)-7-(7)-7-7-7-----| |-------------------------------|-------------------------------| D.S.S. al Dbl. Coda E S S +S S S S E S S E E |--------------------------------| |--------------------------------| |--------------------------------| |-7-9-9-(9)p=7--9p=7--9-9-9-7----| |-5-7-7-(7)-(7)-7-(7)-7-7-7-5----| |--------------------------------| Q=108 && E E +S E. E. S +E E 3x E E +S E. E. S +E E W W ||-------------------------||-----------------------|----------|------| ||o-----------------------o||-----------------------|----------|------| ||-------------------------||-----------------------|----------|-4----| ||----7-(7)-5--7--4-(4)-5--||---7-(7)-5--4--5-(5)-4-|----------|-4----| ||o---7-(7)-5--7--4-(4)-5-o||---7-(7)-5--4--5-(5)-4-|-2--------|-2----| ||--0-5-(5)-3--5--2-(2)-3--||-0-5-(5)-3--2--3-(3)-2-|-0--------|------| Free Time Q=120 7/8 4/4 TP TP H +Q. W W +W |------------|----------|----------:--------| |------------|----------|----------:--------| |------------|-7--------|-9--------:-(9)----| |-5----(5)---|-7--------|-9--------:-(9)----| |-5----(5)---|-5--------|-7--------:-(7)----| |-3----(3)---|----------|-0--------:-(0)----| In Time Q=138 TP PM PM PM PM +W +W E E S E S E S S +E E q Q H |------------:------------|-----------------------|------------*| |------------:------------|-----------------------|------------*| |-(9)--------:-(9)--------|-----------------------|------------*| |-(9)--------:-(9)--------|---7---5---4---5-(5)-4-|-2----------*| |-(7)--------:-(7)--------|---7---5---4---5-(5)-4-|-2----------*| |-(0)--------:-(0)--------|-0---0---0---0---------|-0----------*| Duration Legend --------------- W - whole; H - half; Q - quarter; E - 8th; S - 16th; T - 32nd; X - 64th; a - acciaccatura + - note tied to previous; . - note dotted; .. - note double dotted Uncapitalized letters represent notes that are staccato (1/2 duration) Irregular groupings are notated above the duration line Duration letters will always appear directly above the note/fret number it represents the duration for. Duration letters with no fret number below them represent rests. Multi- bar rests are notated in the form Wxn, where n is the number of bars to rest for. Low melody durations appear below the staff Tablature Legend ---------------- h - hammer-on p - pull-off b - bend pb - pre-bend r - bend release (if no number after the r, then release immediately) / - slide into or out of (from/to "nowhere") s - legato slide S - shift slide - natural harmonic [n] - artificial harmonic n(n) - tapped harmonic ~ - vibrato tr - trill T - tap TP - trem. picking PM - palm muting n/ - tremolo bar dip; n = amount to dip n - tremolo bar down n/ - tremolo bar up /n - tremolo bar inverted dip = - hold bend; also acts as connecting device for hammers/pulls <> - volume swell (louder/softer) x - on rhythm slash represents muted slash o - on rhythm slash represents single note slash Misc Legend ----------- | - bar || - double bar ||o - repeat start o|| - repeat end *| - double bar (ending) : - bar (freetime) $ - Segno & - Coda Tempo markers - = BPM(8/16=s8/s16), where s8 = swing 8ths, s16 = swing 16ths *************************************************************************************** * Generated using Power Tab Editor by Brad Larsen - http://powertab.guitarnetwork.org * ***************************************************************************************

найти лекарство
список лекарств






О сайтеАккордыХит-парадПоискУроки ФорумыИщу песню
ПрограммыСвежачок-сПодпискаСтатьи
Яндекс.Метрика