Табулатура Metallica | Motorbreath  (2) гитара табулатуры уроки тексты песен Metallica текст lyrics песня аккорды песни ноты нота электрогитара струна  
   А Б В Г Д Е Ж З И К Л М Н О П Р С Т У Ф Х Ч Ш Ы Э Ю Я       Разные песни
1-9 A B C D E F G H I J K L M N O P Q R S T U V W Y Z      Все исполнители in english

    



группа Metallica, Табулатура песни Motorbreath (2)

Работа в Европе для граждан РФ, Украины, СНГ

  • минимальная зарплата $500.
  • виза и контракт на полгода, возможно продление
  • проживание оплачивает работодатель
  • нужен только загранпаспорт
  • оформление 190 €
  • данное предложение - отличная возможность эмигрировать в Европу и закрепиться здесь навсегда.

  • Мы свяжемся с Вами по WhatsApp или Viber и ответим на любые вопросы.
    на нашем сайте можно почитать подробнее »

    Группа: Metallica - другие аккорды (225),   о группе (32 статей),   диски (11),   фотографии (49)
    Табулатура песни: Motorbreath (2)
    Просмотров: 2352
    Прислал: DiaSpar (diaspar@i.com.ua)




        
    #----------------------------------PLEASE NOTE---------------------------------#
    #This file is the author's own work and represents their interpretation of the #
    #song. You may only use this file for private study, scholarship, or research. #
    #------------------------------------------------------------------------------##
                                       MOTORBREATH
                                As recorded by METALLICA
                           (From the 1983 Album KILL 'EM ALL)
    Words and Music by James Hetfield
              B5                   G5                   D5                   F#5
          x 2 4 x x x          3 5 x x x x          x 5 7 x x x          2 4 x x x x
              E5                   C#5                  C5
          0 2 x x x x          x 4 6 6 x x          x 3 5 x x x
    Gtr I (E A D G B E) - 'jaymz'
    Gtr II (E A D G B E) - 'kirk'
    Gtr III (E A D G B E) - 'pick slide +flanger'
     Intro
      Fast Rock Q=180
                        A5 Bb5    N.C.(B5)
     4/4
      Gtrs I, II
                                  PM-----------------------
      Wx3          H    Q  Q    E S S E S S E S S S S S S
    |------------|------------|---------------------------|
    |------------|------------|---------------------------|
    |------------|------------|---------------------------|
    |------------|------------|---------------------------|
    |------------|------7--8--|-9-------------------------|
    |------------|------5--6--|-7-7-7-7-7-7-7-7-7-7-7-7-7-|
    
      N.C.(G5)
     -------------------------|
      E S S E S S E S S S S S S
    |------------------------------|
    |------------------------------|
    |------------------------------|
    |------------------------------|
    |------------------------------|
    |-3-3-3-3-3-3-3-3-3-3-3-3-3----|
    
      N.C.(A5)                    N.C.(F#5)         N.C.
      PM-----------------------------------------------------
      E S S E S S E S S S S S S   E S S E S S E S S S S S S
    |---------------------------|---------------------------|
    |---------------------------|---------------------------|
    |---------------------------|---------------------------|
    |---------------------------|---------------------------|
    |---------------------------|---------------------------|
    |-5-5-5-5-5-5-5-5-5-5-5-5-5-|-2-2-2-2-2-2-2-2-2-3-3-5-5-|
    
      N.C.(B5)
     ---------------------------|
      E S S E S S S S S S S S S S
    |------------------------------|
    |------------------------------|
    |------------------------------|
    |------------------------------|
    |------------------------------|
    |-7-7-7-7-7-7-7-7-7-7-7-7-7-7--|
    
      N.C.(G5)
      PM---------------------------
      E S S E S S S S S S S S S S
    |-----------------------------|
    |-----------------------------|
    |-----------------------------|
    |-----------------------------|
    |-----------------------------|
    |-3-3-3-3-3-3-3-3-3-3-3-3-3-3-|
    
      N.C.(A5)                    N.C.(F#5)
     -----------------------------------------------------|
      E S S E S S S S S S S S E   E S S E S S S S S S S S E
    |---------------------------|----------------------------||
    |---------------------------|----------------------------||
    |---------------------------|----------------------------||
    |---------------------------|----------------------------||
    |---------------------------|----------------------------||
    |-5-5-5-5-5-5-5-5-5-5-5-5-5-|-2-2-2-2-2-2-2-2-2-2-2-2-2--||
    
        $
        B5   A5B5      A5    G5      F#5 G5      F#5
                             PM-----------------------
        E Q  E E E +S  S E   E E +S  S E E E +S  S E
    ||---------------------|-------------------------|
    ||o--------------------|-------------------------|
    ||---------------------|-------------------------|
    ||---------------------|-------------------------|
    ||o-9-9--7-9-9-(9)-7-7-|-5-5-(5)-4-4-5-5-(5)-4-4-|
    ||--7-7--5-7-7-(7)-5-5-|-3-3-(3)-2-2-3-3-(3)-2-2-|
    
      A5      G5  A5      G5    F#5  N.F#5  A5
     ---------------------------------------|
      E E +S  S E E E +S  S E   E Q  E E Q  E
    |-------------------------|------------------||
    |-------------------------|-----------------o||
    |-------------------------|------------------||
    |-------------------------|------------------||
    |-7-7-(7)-5-5-7-7-(7)-5-5-|-4-4----4-4--7---o||
    |-5-5-(5)-3-3-5-5-(5)-3-3-|-2-2--0-2-2--5----||
    
       Verse
            B5   A5B5      A5    G5      F#5 G5      F#5
                                 PM-----------------------
            E Q  E E E +S  S E   E E +S  S E E E +S  S E
    ||--||---------------------|-------------------------|
    ||o-||o--------------------|-------------------------|
    ||--||---------------------|-------------------------|
    ||--||---------------------|-------------------------|
    ||o-||o-9-9--7-9-9-(9)-7-7-|-5-5-(5)-4-4-5-5-(5)-4-4-|
    ||--||--7-7--5-7-7-(7)-5-5-|-3-3-(3)-2-2-3-3-(3)-2-2-|
    
      A5      G5  A5      G5    F#5  E F#5  A5
     ---------------------------------------|
      E E +S  S E E E +S  S E   E Q  E E Q  E
    |-------------------------|----------------||
    |-------------------------|---------------o||
    |-------------------------|----------------||
    |-------------------------|----------------||
    |-7-7-(7)-5-5-7-7-(7)-5-5-|-4-4----4-4--7-o||
    |-5-5-(5)-3-3-5-5-(5)-3-3-|-2-2--0-2-2--5--||
    
      B5       A B5       A   B5       A B5       A
      E. S +E  E E. S +E  E   e. S +E  E e. s +E  e
    |-----------------------|-----------------------||
    |-----------------------|-----------------------||
    |-----------------------|-----------------------||
    |-4--4-(4)---4--4-(4)---|-4--4-(4)---4--4-(4)---||
    |-2--2-(2)-0-2--2-(2)-0-|-2--2-(2)-0-2--2-(2)-0-||
    |-----------------------|-----------------------||
    
     Chorus
      B5     G5       D5   B5F#5
      E Q  E E Q  E   E Q  E E Q  E
    |---------------|----------------|
    |---------------|----------------|
    |---------------|----------------|
    |-4-4-----------|-7-7--4---------|
    |-2-2----5-5----|-5-5--2-4-4-----|
    |--------3-3----|--------2-2-----|
    
      G5     E5       F#5              B5     G5
      E Q  E E Q  E   S S Q  E q  Q    E Q  E E Q  E
    |---------------|----------------|---------------|
    |---------------|----------------|---------------|
    |---------------|----------------|---------------|
    |---------------|----------------|-4-4-----------|
    |-5-5----2-2----|-4-4-4--4-4-----|-2-2----5-5----|
    |-3-3----0-0----|-2-2-2--2-2-----|--------3-3----|
    
                                                  To Coda
      D5   B5F#5      G5     E5       F#5
      E Q  E E Q  E   E Q  E E Q  E   S S S S S S S S q  Q
    |---------------|---------------|-----------------------||
    |---------------|---------------|-----------------------||
    |---------------|---------------|-----------------------||
    |-7-7--4--------|---------------|-----------------------||
    |-5-5--2-4-4----|-5-5----2-2----|-4-4-4-4-4-4-4-4-4-----||
    |--------2-2----|-3-3----0-0----|-2-2-2-2-2-2-2-2-2-----||
    
        N.C.
            PM    PM    PM    PM
        S S S S S S S S S S S S E E
    ||------------------------------|
    ||o-----------------------------|
    ||------------------------------|
    ||--4p2---4p2---4p2---4p2---4-2-|
    ||o-----2-----2-----2-----2-----|
    ||------------------------------|
    
          PM    PM    PM    PM          PM    PM    PM    PM
      S S S S S S S S S S S S E E   S S S S S S S S S S S S E E
    |-----------------------------|------------------------------|
    |-----------------------------|------------------------------|
    |-----------------------------|------------------------------|
    |-4p2---4p2---4p2---4p2---4-2-|-4p2---4p2---4p2---4p2---4-2--|
    |-----2-----2-----2-----2-----|-----0-----0-----0-----0------|
    |-----------------------------|------------------------------|
    
                                          B5             C5
                                         5/4
          PM    PM    PM    PM
      S S S S S S S S S S S S E E         H    +E. S +E. S +Q
    |------------------------------||--||----------------------||
    |-----------------------------o||-o||----------------------||
    |------------------------------||--||----------------------||
    |-4p2---4p2---4p2---4p2---4-2--||--||-4----(4)-4-(4)-5-(5)-||
    |-----2-----2-----2-----2-----o||-o||-2----(2)-2-(2)-3-(3)-||
    |------------------------------||--||----------------------||
    
     Guitar Solo
      C#5                                                                     G#5
     4/4
      Gtr II
       Q.          +E     +Q.            S  S     S  S   S S  S S  S S  S  S   S S  S S  S S
    |------------------------------------------|---------------------------------------------|
    |-12----------(12)---(12)------------9--9--|-12p=9-----9-12p9----9-12p=9-----9-12p9----9-|
    |-11----------(11)---(11)------------------|--------11--------11----------11--------11---|
    |------------------------------------------|---------------------------------------------|
    |------------------------------------------|---------------------------------------------|
    |------------------------------------------|---------------------------------------------|
    |
    | Gtr I
    |     PM-----------|         PM                      PM----------|
    |  E  S S S S   S  S   S  S  S S +E  S  S     S  S   S S  S S  S S  S  S   E    Q
    |------------------------------------------|---------------------------------------------|
    |------------------------------------------|---------------------------------------------|
    |------------------------------------------|---------------------------------------------|
    |--6-------------------6p=4----6-(6)-6p=4--|--4h=6------------------6p=4-----------------|
    |--4--4-4-4-4---4--4---4-(4)-4-4-(4)-4-(4)-|--4-(4)--4-4--4-4--4-4--4-(4)--6----6--------|
    |------------------------------------------|-------------------------------4----4--------|
    
      C#5
       S    E    T T  S    S  S S  S     S   S S  S    S  S  S
    |-------9--------------9-------------9-------------9-----------|
    |-12b14-----12p9-12b14---12p9-12b14-----12p9-12b14---12p=9-----|
    |--------------------------------------------------------------|
    |--------------------------------------------------------------|
    |--------------------------------------------------------------|
    |--------------------------------------------------------------|
    |
    |         PM----------------|            PM
    |  E      S  S    S    S  S S  S     S   S S +E       S  S
    |--------------------------------------------------------------|
    |--------------------------------------------------------------|
    |--------------------------------------------------------------|
    |--6---------------------------6p====4-----6-(6)------6p=4-----|
    |--4------4--4----4----4--4-4--4----(4)--4-4-(4)------4-(4)----|
    |--------------------------------------------------------------|
    
                               G#5
       S     S   S S  S S  S S  S S  S   S  S E.
    |----------------------------------------------|
    |--------9--12p9-------------------------------|
    |-11b13----------11-9----9-11p9----------------|
    |---------------------11--------11---9---------|
    |--------------------------------------11-9---|
    |----------------------------------------------|
    |
    |            PM----------|
    |                           |-------3--------|
    |  S     S   S S  S S  S S  q      q         q
    |----------------------------------------------|
    |----------------------------------------------|
    |----------------------------------------------|
    |--4h====6-------------------------------------|
    |--4----(4)--4-4--4-4--4-4--6------6---------6-|
    |---------------------------4------4---------4-|
    
      C#5
       E S S S  S S S  S  S   S S  S  S  E
    |-------------------------------------------|
    |-------------------------------------------|
    |---------------------------------9-11------|
    |-------------9-9-11p=9-----9-11------------|
    |----7-9-9s11------------11-----------------|
    |-/9----------------------------------------|
    |
    |    PM---------|         PM
    |  E S S S  S S S  S  S   S S +E     S  S
    |-------------------------------------------|
    |-------------------------------------------|
    |-------------------------------------------|
    |--6---------------6p=4-----6-(6)----6p=4---|
    |--4-4-4-4--4-4-4--4-(4)--4-4-(4)----4-(4)--|
    |-------------------------------------------|
    
                                   G#5
       S  S   S S  S S  S S  S  S   S S E    S     S
    |------------------------------------------------|
    |---------------------------------------------16-|
    |-11p=9-----9-11p9----9-11p=9-----9-9-/18b20----|
    |--------11--------11----------11----------------|
    |------------------------------------------------|
    |------------------------------------------------|
    |
    |         PM----------|
    |  S  S   S S  S S  S S  S  S   E   Q
    |------------------------------------------------|
    |------------------------------------------------|
    |------------------------------------------------|
    |--4h=6------------------6p=4--------------------|
    |--4-(4)--4-4--4-4--4-4--4-(4)--6---6------------|
    |-------------------------------4---4------------|
    
      C#5
       E     S  S     S  E       S  S  S   S  S  S   S  S  S
    |-------16-------16---------16-19p16------------------------|
    |-19b21----19b21----19b21-------------19-16-16--16-19p16----|
    |-----------------------------------------------------------|
    |-----------------------------------------------------------|
    |-----------------------------------------------------------|
    |-----------------------------------------------------------|
    |
    |        PM-----------------|          PM
    |  E     S  S     S  S    S  S  S  S   S  S +E      S  S
    |-----------------------------------------------------------|
    |-----------------------------------------------------------|
    |-----------------------------------------------------------|
    |--6----------------------------6p=4------6-(6)-----6p=4----|
    |--4-----4--4-----4--4----4--4--4-(4)--4--4-(4)-----4-(4)---|
    |-----------------------------------------------------------|
    
                  D.S. al Coda    &
                            C5    B5 C5
                                 2/4
       S  S  S  S  Q     H        Q  Q
    |--------------------------||-------||
    |----16-19p16-19b21--------||-------||
    |-18-----------------------||-------||
    |--------------------------||-4--5--||
    |--------------------------||-2--3--||
    |--------------------------||-------||
    |
    |        PM|
    |  E     S  S  q     Q  Q     Q  Q
    |--------------------------||-------||
    |--------------------------||-------||
    |--------------------------||-------||
    |--6-----------6-----6--5--||-4--5--||
    |--4-----4--4--4-----4--3--||-2--3--||
    |--------------------------||-------||
    
     Guitar Solo
      C#5
     4/4
       S S  S S  S S  S S  S  S   S S  S  S  S  S
    |-12p9------12p9------12p=9-------12p=9--------|
    |------12p9------12p9--------12p9-------12p=9--|
    |----------------------------------------------|
    |----------------------------------------------|
    |----------------------------------------------|
    |----------------------------------------------|
    |
    |       PM----------|         PM
    |  E    S S  S S  S S  S  S   S S +E     S  S
    |----------------------------------------------|
    |----------------------------------------------|
    |----------------------------------------------|
    |--6-------------------6p=4-----6-(6)----6p=4--|
    |--4----4-4--4-4--4-4--4-(4)--4-4-(4)----4-(4)-|
    |----------------------------------------------|
    
                                   G#5
                                              |-3--|
       S  S   S S  S S  S S  S  S   S S  S S  S S  S
    |-12p=9-------12p9------12p=9-------12p9---------|
    |--------12p9------12p9--------12p9------12p9-12-|
    |------------------------------------------------|
    |------------------------------------------------|
    |------------------------------------------------|
    |------------------------------------------------|
    |
    |         PM----------|
    |  S  S   S S  S S  S S  S  S   E    Q
    |------------------------------------------------|
    |------------------------------------------------|
    |------------------------------------------------|
    |--4h=6------------------6p=4--------------------|
    |--4-(4)--4-4--4-4--4-4--4-(4)--6----6-----------|
    |-------------------------------4----4-----------|
    
      C#5
    
    Узнай ВСЕ о своем друге в ВК или FB
    |--3--| |--3--| |---3---| |--3--| |-3--| |---3---| S S S S S S S S S S S S S S S S S S S S S S |-12p9-12p9-11-8---8-10-7---7-9-6-----6-8-5---5--7--4-4-4-4-----4--| |------------------------------------------------------------------| |------------------------------------------------------------------| |------------------------------------------------------------------| |------------------------------------------------------------------| |------------------------------------------------------------------| | | PM----------------| PM | E S S S S S S S S S S +E S S |------------------------------------------------------------------| |------------------------------------------------------------------| |------------------------------------------------------------------| |--6--------------------------6p===4--------6---(6)-----6p===4-----| |--4----4-4--4---4----4---4---4---(4)---4---4---(4)-----4---(4)----| |------------------------------------------------------------------| G#5 E S S S S S S S S S S +E S S |-4-------4-7p4----------------------------| |-------7-------7-4-7-4--------------------| |-----------------------6---4-(4)b5------4-| |-------------------------------------/6---| |------------------------------------------| |------------------------------------------| | | PM--------| | |-------3-------| | S S S S S S S S q q q |------------------------------------------| |------------------------------------------| |------------------------------------------| |-4h=6-------------------------------------| |-4-(4)-4-4-4-4-4-4-6-----6---------6------| |-------------------4-----4---------4------| C#5 S E S E S E S E E S S |--------------------------------------| |---4-----4-----4-------6----4---------| |---4-----4-----4-------6----4-----4---| |-6-----6-----6------6----------6------| |--------------------------------------| |--------------------------------------| | | PM--------| PM | E S S S S S S S S S S +E S S |--------------------------------------| |--------------------------------------| |--------------------------------------| |-6---------------6p=4----6-(6)-6p=4---| |-4---4-4-4-4-4-4-4-(4)-4-4-(4)-4-(4)--| |--------------------------------------| G#5 C#5 |--3--| S S S S S S S S S S S S S E E E S S E S S S S S S S S E |---------------------------------------|---------------------------------------| |------4--7p4---------------------------|---------------------------------------| |-6b8---------4h6p==4---4-6--4----------|-------------------------------4-6-----| |---------------------6---------6-4-----|-------------4-4-6p=4----4--6----------| |-----------------------------------6-4-|----2-4-/6-------------6---------------| |---------------------------------------|-/4------------------------------------| | | PM------------| PM---------| PM | S S S S S S S S S S E Q E S S S S S S S S S S +E S S |---------------------------------------|---------------------------------------| |---------------------------------------|---------------------------------------| |---------------------------------------|---------------------------------------| |-4h===6------------------6p=4----------|--6--------------6p=4----6-(6)---6p=4--| |-4---(4)-4-4-4---4---4-4-4-(4)-6---6---|--4-4-4--4-4-4-4-4-(4)-4-4-(4)---4-(4)-| |-------------------------------4---4---|---------------------------------------| G#5 S S S S S S S S S S E E E |----------------------------------------| |----------------------------------------| |-6b8-----4-6p4---4-6p4---4---/9---11---| |------6--------6-------6----------------| |----------------------------------------| |----------------------------------------| | | PM--------| | |-----3-----| | S S S S S S S S q q q |----------------------------------------| |----------------------------------------| |----------------------------------------| |-4h===6---------------------------------| |-4---(4)-4-4-4-4-4-4-6------6----6------| |---------------------4------4----4------| C#5 ~~~~~ S S S E. S E S E Q |-------9-9------------------9----------------------| |-----------12b14-----9-9-------12b14---12b14-------| |-11b13---------------------------------------------| |---------------------------------------------------| |---------------------------------------------------| |---------------------------------------------------| | | PM------------| PM | E S S S S S S S S S S +E S S |---------------------------------------------------| |---------------------------------------------------| |---------------------------------------------------| |--6----------------------6p=4--------6-(6)---6p=4--| |--4------4--4----4-4-4-4-4-(4)--4----4-(4)---4-(4)-| |---------------------------------------------------| G#5 ~~~~~ |--3---| S S S S +E. T T S S E E E S S S S S S S S S S S S S S S S S |-----------9---------------------------9--------------------|---------------9h12p==9---------------------------| |--------9----12b14-(12)-----9-9-----------12b14-12b14-12b14-|-12p9-9-9-12p9----------12p=9-----9-12p=9---------| |-11b13--------------------------11b13-----------------------|-------------------------------12---------11--9---| |------------------------------------------------------------|--------------------------------------------------| |------------------------------------------------------------|--------------------------------------------------| |------------------------------------------------------------|--------------------------------------------------| | | PM---------------| PM------------| PM | S S S S S S S S S S E Q E S S S S S S S S S S +E S S |------------------------------------------------------------|--------------------------------------------------| |------------------------------------------------------------|--------------------------------------------------| |------------------------------------------------------------|--------------------------------------------------| |--4h====6------------------------6p====4--------------------|--6----------------------6p=4-----6-(6)----6p=4---| |--4----(4)-4--4------4--4-4-4----4----(4)--6-----6----------|--4---4-4--4-4-4----4----4-(4)--4-4-(4)----4-(4)--| |-------------------------------------------4-----4----------|--------------------------------------------------| G#5 C#5 S S S S S S S S S S S S +E S S E S E S S S S S S S S S S S |---------------------------------------------16-|-16----16-16------16-16----16-19p16-----16-19p=16-21p16--| |------------------------------------------19----|-19b21----19b21------19b21-----------19------------------| |-9--9--11p9-------------------------------------|---------------------------------------------------------| |------------11-9-9-9-11-9-----------------------|---------------------------------------------------------| |--------------------------11---9b10-(9)---------|---------------------------------------------------------| |------------------------------------------------|---------------------------------------------------------| | | PM---------| PM-----------------| PM | |--------3--------| | S S S S S S S S q q q E S S S S S S S S S S +E S S |------------------------------------------------|---------------------------------------------------------| |------------------------------------------------|---------------------------------------------------------| |------------------------------------------------|---------------------------------------------------------| |-4h=6-------------------------------------------|--6----------------------------6p=4------6-(6)-----6p=4--| |-4-(4)--4-4--4-4-4-4--6------6----------6-------|--4-----4--4----4--4--4-----4--4-(4)--4--4-(4)-----4-(4)-| |----------------------4------4----------4-------|---------------------------------------------------------| G#5 S S S S S S S S S S S S S S S S |-19p16-----16-19p16-21p16-19p16-----16-19p16----------| |--------19-----------------------19----------19-16----| |------------------------------------------------------| |------------------------------------------------------| |------------------------------------------------------| |------------------------------------------------------| | | PM------------| | S S S S S S S S S S E Q |------------------------------------------------------| |------------------------------------------------------| |------------------------------------------------------| |--4h=6---------------------6p=4-----------------------| |--4-(4)--4--4--4--4--4--4--4-(4)--6-----6-------------| |----------------------------------4-----4-------------| C#5 S S S S T T S S S S S S S S S S S |----------------16h19p16-----------------------19p=16--------| |-------16-19p16----------19-16-------16--19p16--------19-16--| |-18b20-------------------------18b20-------------------------| |-------------------------------------------------------------| |-------------------------------------------------------------| |-------------------------------------------------------------| | | PM---------------| PM | E S S S S S S S S S S +E S S |-------------------------------------------------------------| |-------------------------------------------------------------| |-------------------------------------------------------------| |--6-----------------------------6p====4------6-(6)-----6p=4--| |--4--------4--4--4-----4--4--4--4----(4)--4--4-(4)-----4-(4)-| |-------------------------------------------------------------| | | Gtr III | W |-------------------------------------------------------------| |-------------------------------------------------------------| |-------------------------------------------------------------| |-------------------------------------------------------------| |-------------------------------------------------------------| |-------------------------------------------------------------| G#5 C#5 S S S S S S S S E. S +Q H H |-----------------19p16----16-19b21---19b22-(19)---|-19b21------------------------------------|| |-------16--19p16-------19-------------------------|------------------------------------------|| |-18b20--------------------------------------------|------------------------------------------|| |--------------------------------------------------|------------------------------------------|| |--------------------------------------------------|------------------------------------------|| |--------------------------------------------------|------------------------------------------|| | | PM------------| PM--------| PM | |--------3--------| | S S S S S S S S q q q E S S S S S S S S S S +E S S |--------------------------------------------------|------------------------------------------|| |--------------------------------------------------|------------------------------------------|| |--------------------------------------------------|------------------------------------------|| |--4h====6-----------------------------------------|--6----------------6p=4----6-(6)-6p=4-----|| |--4----(4)--4--4--4--4--4--4--6----6------------6-|--4----4-4-4-4-4-4-4-(4)-4-4-(4)-4-(4)----|| |------------------------------4----4------------4-|------------------------------------------|| | | H Q Q W |--------------------------------------------------|------------------------------------------|| |--------------------------------------------------|------------------------------------------|| |--------------------------------------------------|------------------------------------------|| |--------------------------------------------------|------------------------------------------|| |------------------------------xs============(x)s==|=(x)s=====================================|| |------------------------------xs============(x)s==|=(x)s=====================================|| Outro C#5 Gtrs I, II PM--------| S S S S S S S S S S E Q |--------------------------------| |--------------------------------| |--------------------------------| |--4h==6--------------6p=4-------| |--4--(4)-4-4-4-4-4-4-4-(4)-6-6--| |---------------------------4-4--| | | Gtr III | Q Q H |--------------------------------| |--------------------------------| |--------------------------------| |--------------------------------| |-(x)----------------------------| |-(x)----------------------------| G#5 PM--------| PM PM--------| |-3-| E S S S S S S S S S S +E S S S S S S S S S S q q q |-----------------------------------|--------------------------| |-----------------------------------|--------------------------| |-----------------------------------|--------------------------| |-6-------------6p=4----6-(6)-6p=4--|-4h=6---------------------| |-4-4-4-4-4-4-4-4-(4)-4-4-(4)-4-(4)-|-4-(4)-4-4-4-4-4-4-6-6-6--| |-----------------------------------|-------------------4-4-4--| | | W W |-----------------------------------|--------------------------| |-----------------------------------|--------------------------| |-----------------------------------|--------------------------| |-----------------------------------|--------------------------| |-----------------------------------|--------------------------| |-----------------------------------|--------------------------| C#5 G#5 Gtrs I, II PM--------| PM PM--------| E S S S S S S S S S S +E S S S S S S S S S S S S E Q |-----------------------------------|------------------------------| |-----------------------------------|------------------------------| |-----------------------------------|------------------------------| |-6-------------6p=4----6-(6)-6p=4--|-4h=6--------------6p=4-------| |-4-4-4-4-4-4-4-4-(4)-4-4-(4)-4-(4)-|-4-(4)-4-4-4-4-4-4-4-(4)-6-6--| |-----------------------------------|-------------------------4-4--| C#5 PM--------| PM E S S S S S S S S S S +E S S |--------------------------------------| |--------------------------------------| |--------------------------------------| |-6-------------6p=4----6-(6)-6p=4-----| |-4-4-4-4-4-4-4-4-(4)-4-4-(4)-4-(4)----| |--------------------------------------| G#5 B5 F#5 C#5 PM--------| |-3-| |-3-| |-3-| S S S S S S S S q q q q q q q q q q Q H |-------------------------|-------------|------------*| |-------------------------|-------------|------------*| |-------------------------|-------------|------------*| |-4h=6--------------------|-4-4-4-------|-6----------*| |-4-(4)-4-4-4-4-4-4-6-6-6-|-2-2-2-4-4-4-|-4----------*| |-------------------4-4-4-|-------2-2-2-|------------*| Duration Legend --------------- W - whole; H - half; Q - quarter; E - 8th; S - 16th; T - 32nd; X - 64th; a - acciaccatura + - note tied to previous; . - note dotted; .. - note double dotted Uncapitalized letters represent notes that are staccato (1/2 duration) Irregular groupings are notated above the duration line Duration letters will always appear directly above the note/fret number it represents the duration for. Duration letters with no fret number below them represent rests. Multi- bar rests are notated in the form Wxn, where n is the number of bars to rest for. Low melody durations appear below the staff Tablature Legend ---------------- h - hammer-on p - pull-off b - bend pb - pre-bend r - bend release (if no number after the r, then release immediately) / - slide into or out of (from/to "nowhere") s - legato slide S - shift slide - natural harmonic [n] - artificial harmonic n(n) - tapped harmonic ~ - vibrato tr - trill T - tap TP - trem. picking PM - palm muting n/ - tremolo bar dip; n = amount to dip n - tremolo bar down n/ - tremolo bar up /n - tremolo bar inverted dip = - hold bend; also acts as connecting device for hammers/pulls <> - volume swell (louder/softer) x - on rhythm slash represents muted slash o - on rhythm slash represents single note slash Misc Legend ----------- | - bar || - double bar ||o - repeat start o|| - repeat end *| - double bar (ending) : - bar (freetime) $ - Segno & - Coda Tempo markers - = BPM(8/16=s8/s16), where s8 = swing 8ths, s16 = swing 16ths *************************************************************************************** * Generated using Power Tab Editor by Brad Larsen - http://powertab.guitarnetwork.org * ***************************************************************************************

    найти лекарство
    список лекарств






    О сайтеАккордыХит-парадПоискУроки ФорумыИщу песню
    ПрограммыСвежачок-сПодпискаСтатьи
    Яндекс.Метрика