Табулатура Metallica | Dirty Window  (2) гитара табулатуры уроки тексты песен Metallica текст lyrics песня аккорды песни ноты нота электрогитара струна  
   А Б В Г Д Е Ж З И К Л М Н О П Р С Т У Ф Х Ч Ш Ы Э Ю Я       Разные песни
1-9 A B C D E F G H I J K L M N O P Q R S T U V W Y Z      Все исполнители in english

    



группа Metallica, Табулатура песни Dirty Window (2)

Работа в Европе для граждан РФ, Украины, СНГ

  • минимальная зарплата $500.
  • виза и контракт на полгода, возможно продление
  • проживание оплачивает работодатель
  • нужен только загранпаспорт
  • оформление 190 €
  • данное предложение - отличная возможность эмигрировать в Европу и закрепиться здесь навсегда.

  • Мы свяжемся с Вами по WhatsApp или Viber и ответим на любые вопросы.
    на нашем сайте можно почитать подробнее »

    Группа: Metallica - другие аккорды (225),   о группе (32 статей),   диски (11),   фотографии (49)
    Табулатура песни: Dirty Window (2)
    Просмотров: 2646
    Подобрал: Tim Gielissen (timgte@hotmail.com)




        
    Tabbed by: Tim Gielissen, timgte@hotmail.com
    A few changes: Alexey Volkov, xal@akkords.ru
    Band: Metallica
    Song: Dirty Window
    Album: St. Anger
    
    TUNING: C#-G#-C#-F#-A#-D#
    
    RIFF A (0:00)
    d#--------------------------------------|
    A#--------------------------------------|
    F#--------------------------------------|
    C#----x--x--x--x--x----x----x--x----x---|   Play 6 times
    G#----x--x--x--x--x----x----x--x----x---|
    C#----x--x--x--x--x----x----x--x----x---|
    
    RIFF B (0:14)
    d#-----------------------------------------|
    A#-----------------------------------------|
    F#-----------------------------------------|
    C#-----------------------------------------|   Play 5 times
    G#------------------------------5----------|
    C#---0--3--5--0--3--5--0--3--5-----6--5----|
    
    RIFF B2 (0:33)
    d#---------------------------|
    A#---------------------------|
    F#---------------------------|
    C#---3----0-3-0--3h5--5-5-5--|   Play once
    G#---3----0-3-0--3h5--5-5-5--|
    C#---3----0-3-0--3h5--5-5-5--|
    
    Play RIFF B  4 times  
    Play RIFF B2 once     ('This house..')
    
    RIFF C: Slower and Palm Muted (0:55)
    d#-----------------------------------------|
    A#-----------------------------------------|
    F#-----------------------------------------|
    C#-----------------------------------------|   Play 2 times
    G#---0--3--5--0--3--5--0--3--5--5--6--5----|
    C#---0--3--5--0--3--5--0--3--5-----6--5----|
    
    RIFF D (1:03)
    d#------------------------------------------------|
    A#------------------------------------------------|
    F#------------------------------------------------|
    C#---0--3--5--0--x--x-x-x--0--3--5----------------|   Play 3 times
    G#---0--3--5--0--x--x-x-x--0--3--5----------------|   
    C#---0--3--5--0--x--x-x-x--0--3--5--6b(7)r(6)-----|
        ('Am I who...')
    
    RIFF E1 (1:14)
    d#--------------------------------------------|
    A#--------------------------------------------|
    F#--------------------------------------------|
    C#---3--6--8--3--x-x---x-3--6--8--------------|   play once
    G#---3--6--8--3--x-x---x-3--6--8--------------|
    C#---3--6--8--3--x-x---x-3--6--8-9b(10)r(9)---|
        ('Look out..')
    
    RIFF E2
    d#-------------------------------------|
    A#-------------------------------------|
    F#-------------------------------------|
    
    Узнай ВСЕ о своем друге в ВК или FB
    C#---3--6--8--3--x-3--6--8--3--6--8----| play once G#---3--6--8--3--x-3--6--8--3--6--8----| C#---3--6--8--3--x-3--6--8--3--6--8----| RIFF B 2 times RIFF F (1:29) - clean d#-----------------------------------------------------------------| A#-----------------------------------------------------------------| F#-----------------------------------------------------------------| C#---7-----3--7--5----/8--7----------------------0-----------------| Play 2 times G#---------0--0--3----------------------------------------5--------| C#-----------------------------0--3--5--0--3--5-(0)-3--5-----6--5--| ('I'm judging ...') RIFF G1 (1:44) d#---------------| A#---------------| F#---------------| C#---0--3--5--0--| play 2 times G#---0--3--5--0--| C#---0--3--5--0--| ('PROJECTOR') RIFF G2 d#------------------------| A#------------------------| F#------------------------| C#---0--3--5--12--6--5----| play once G#---0--3--5--12--6--5----| C#---0--3--5--12--6--5----| RIFF G1 3 times ROFF G2 2 times RIFF A 2 times RIFF B 4 times RIFF B2 once RIFF C 2 times RIFF D 3 times RIFF E1 once RIFF E2 once RIFF B 2 times RIFF F 2 times RIFF G1 2 times RIFF G2 once RIFF G1 3 times RIFF G2 2 times RIFF A 18 times RIFF B 2 times RIFF F 2 times RIFF G1 2 times RIFF G2 once RIFF G1 3 times RIFF G2 2 times RIFF A 24 times That's it! Any remarks? Just mail to timgte@hotmail.com, I saw another version for this song but I believe this one is 100% accurate! Enjoy!

    искать в аптеке
    список лекарств

    Аренда заказ автобуса из Сызрани

    goldentour-tlt.ru








    О сайтеАккордыХит-парадПоискУроки ФорумыИщу песню
    ПрограммыСвежачок-сПодпискаСтатьи
    Яндекс.Метрика