Табулатура Сплин | Пластмассовая Жизнь гитара табулатуры уроки тексты песен Сплин текст lyrics песня аккорды песни ноты нота электрогитара струна  
   А Б В Г Д Е Ж З И К Л М Н О П Р С Т У Ф Х Ч Ш Ы Э Ю Я       Разные песни
1-9 A B C D E F G H I J K L M N O P Q R S T U V W Y Z      Все исполнители in english

    



группа Сплин, Табулатура песни Пластмассовая Жизнь

Группа: Сплин - другие аккорды (208),   о группе (11 статей),   диски (15),   фотографии (57)
Табулатура песни: Пластмассовая Жизнь
Просмотров: 2511
Подобрал: lav_rik ( lav_rik@ua.fm)




    
3.      Пластмассовая жизнь (А.Васильев)
                                           БАС 
~-Slide  
|||-глушить ноту
Dm                               Gm                           Dm
                               Убей меня,   внезапно гаснет свет       
A |5-------------------------|||------------------------------5---|
E |---------------------------------------3-----------------------| 
 
                        Gm                                Dm   
                       Нервно курит балерина в пачке сигарет 
D |------7--------------------------------------------------------| 
 A |5-7-8---5----5-3-------------------------5------------5-5--|||--|
E |-----------------6-5-3------------3-5-6----3--3--5-6------------|
    F                          Dm           C         A#   
   Солнце светит мимо кассы, прошлогодний снег еще лежит 
A |----------------------------5------------3---------1-----------|
E |-1-------------1-----------------------------------------------|
    F                        Dm             C        A#   Gm
  Все на свете из пластмассы и вокруг пластмассовая жизнь 
A |--------------------------5--------------3--------1-1~11~------|
E |-1----------1--------------------------------------------333||||
               Dm 
  Тянутся хвосты 
D |-------------------------7--| 
A |------------5------5-7-8----|
E |----------------------------|
    Gm                       C                               F
   Миллиарды звезд сошли на нет c тех пор как мы с тобой на ты 
A |-----------------------5--3-----------------3------------------|
E |-3----------3----5--6-----------------------------6-5.-3--1----|
     A#                     Gm                  C                 F
    И дело вовсе не в примете, только мертвый не боится смерти, вдоль дорог расставлены посты
A |---------------------------------------------3---------3-------|
E |--6-------6----5---------3--------3--------------------------1-|  
                 Dm
Возьми меня с собой 
D |-------------------------7--| 

Продолжаем грести бабос на ботах в Telegram.
Только в этот раз есть вариант автоматизировать это дело, привлекая рефералов. Вы можете заработать если »

A |--------------5----5-7-8----| E |----------------------------| Gm C F Беспощадно в небе светит солнце у тебя над головой A |----------------------5---3----------3-------------------------| E |-3------------3-5---6--------------------6---5.3-1------------| Dm C A# И снова мимо кассы тень забилась в угол и дрожит A |-----------------5--------------3----------1-|||---------------| E |------1--------------------------------------------------------| F Dm C A# Gm Все на свете из пластмассы и вокруг пластмассовая жизнь A |--------------------------5--------------3--------1-1~11~------| E |-1----------1--------------------------------------------333|||| Dm Тянутся хвосты Убей меня За то, что я давно к тебе остыл D |------------------7--------------------| A |----------5-5-7-8---5--5-3-------------| E |---------------------------6-5-3----|||| Такой бас в АКУСТИКЕ (Станиславского) ФЛЕЙТА Dm e |-----------------------------------------------------------| B |-----------------------------------------------------------| G |-----------------------------------------------------------| D |7-0-3-0-7-0-3-0-7-0-3-0-7-0-3-0-7-0-3-0--------------------| A |-----------------------------------------------------------| E |-----------------------------------------------------------| Gm e |-----------------------------------------------------------| B |-----------------------------------------------------------| G |-----------------------------------------------------------| D |8-0-7-0-5-0-3-0-8-0-7-0-5-0-3-0----------------------------| A |-----------------------------------------------------------| E |-----------------------------------------------------------|








О сайтеАккордыХит-парадПоискУроки ФорумыИщу песню
ПрограммыСвежачок-сПодпискаСтатьи
Яндекс.Метрика