Табулатура Сплин | Сломано Все гитара табулатуры уроки тексты песен Сплин текст lyrics песня аккорды песни ноты нота электрогитара струна  
   А Б В Г Д Е Ж З И К Л М Н О П Р С Т У Ф Х Ч Ш Ы Э Ю Я       Разные песни
1-9 A B C D E F G H I J K L M N O P Q R S T U V W Y Z      Все исполнители in english

    



группа Сплин, Табулатура песни Сломано Все

Группа: Сплин - другие аккорды (208),   о группе (11 статей),   диски (15),   фотографии (57)
Табулатура песни: Сломано Все
Просмотров: 1566
Прислал: lav_rik (lav_rik@ua.fm)




    
Сломано все  (А.Васильев)
      Dm                                 A/D
e |3---1-----1-----------0---1-0----|
B |--------3-----3-----2------------|
G |--2---2-----2-----2-----2-----2--|
D |0---------------0----------------| 
A |---------------------------------|
E   |---------------------------------|
      Dm                                 A/D
e |3---1-----1-----------0---1-0----|
B |--------3-----3-----2------------|
G |--2---2-----2-----2-----2-----2--|
D |0---------------0----------------| 
A |---------------------------------|
E   |---------------------------------|
      Dm                                 A/D
e |3---1-----1-----------0---1-0----|
B |--------3-----3-----2------------|
G |--2---2-----2-----2-----2-----2--|
D |0---------------0----------------| 
A |---------------------------------|
E   |---------------------------------|
   Am/D                           A/D  
e |------0-----0---------0----------|
B |----1-----1---------2------------|
G |--2-----2-----2---2--------------|
D |0---------------0----------------| 

Продолжаем грести бабос на ботах в Telegram.
Только в этот раз есть вариант автоматизировать это дело, привлекая рефералов. Вы можете заработать если »

A |---------------------------------| E |---------------------------------| Dm A/D Am/D A/D Сколько пройдено верст Dm A/D Dm A/D Сколько пройдено верст Dm A/D Dm A/D Сломано все, разрушено все Am/D A/D Сломано все... Тихо падать в песок С криком идти сквозь песок Сломано все, разрушено все Сломано все... Сколько выпало звезд Сколько выпало звезд Выпало звезд... Бог мой это лишь сон Бог мой какой страшный сон Сломано все, разрушено все Сломано все... Версия АКУСТИКИ (Станиславского) Оправдание: с АКУСТИКИ легче подбирать.








О сайтеАккордыХит-парадПоискУроки ФорумыИщу песню
ПрограммыСвежачок-сПодпискаСтатьи
Яндекс.Метрика