Табулатура Ария | Без тебя  (3) гитара табулатуры уроки тексты песен Ария текст lyrics песня аккорды песни ноты нота электрогитара струна  
   А Б В Г Д Е Ж З И К Л М Н О П Р С Т У Ф Х Ч Ш Ы Э Ю Я       Разные песни
1-9 A B C D E F G H I J K L M N O P Q R S T U V W Y Z      Все исполнители in english

    



группа Ария, Табулатура песни Без тебя (3)

Продолжаем грести бабос на ботах в Telegram.
Только в этот раз есть вариант автоматизировать это дело, привлекая рефералов. Вы можете заработать если »

Группа: Ария - другие аккорды (629),   о группе (7 статей),   диски (18),   фотографии (92)
Табулатура песни: Без тебя (3)
Просмотров: 4756
Прислал: Forever (forever@akkords.ru)




    
ез тебя - Вступление
                                                
E||--1--------1-----------0--------0-----------|
B||--------------3-----3--------------3-----3--|
G||-----------------2--------------------2-----|
D||--0-----------------------------------------|
A||-----------------------3--------------------|
E||--------------------------------------------|
                                    
---------------------------0-------|
--3----3-----------2------------1--|
----------0--0---------------------|
-----------------------------------|
--1-------------1--0--0------------|
-------------3---------------------|
                                                                              
--1--------1-----------0--------0-----------------0--------------------------|
--------------3-----3--------------3-----3--3-----------3--------3-----3-----|
-----------------2--------------------2--------0-----0--------------2-----2--|
--0-----------------------------------------------------0--------------------|
-----------------------3--------------------1-----3--------------------------|
-----------------------------------------------------------------------------|
                                  
--1--0--0----------0-------------|

Продолжаем грести бабос на ботах в Telegram.
Только в этот раз есть вариант автоматизировать это дело, привлекая рефералов. Вы можете заработать если »

-------------3--------3--3--3----| ----------------2--------0-------| --0------------------------------| -----3--3----------3--1----------| ---------------------------------| ------------0----0----------0--1--0--0--------0-----------| --2-----------------1----1--------------3--------3--3--3--| -------2---------------2-------------------2--------0-----| -------------------------------0--------------------------| --0-------------------------------3--3--------3--1--------| ----------------------------------------------------------| ------------0--0--------0--------|------|| --2---------------1--------1-----|------|| -------2-------------2--------2--|------|| ---------------------------------|------|| --0------------------------------|------|| ---------------------------------|------||

искать в аптеке
список лекарств

Покраска бревенчатого

дома от профессионалов.

domcolor.ru








О сайтеАккордыХит-парадПоискУроки ФорумыИщу песню
ПрограммыСвежачок-сПодпискаСтатьи
Яндекс.Метрика