Табулатура Shocking Blue | Keep It If You Want гитара табулатуры уроки тексты песен Shocking Blue текст lyrics песня аккорды песни ноты нота электрогитара струна  
   А Б В Г Д Е Ж З И К Л М Н О П Р С Т У Ф Х Ч Ш Ы Э Ю Я       Разные песни
1-9 A B C D E F G H I J K L M N O P Q R S T U V W Y Z      Все исполнители

    



группа Shocking Blue, Табулатура песни Keep It If You Want

Группа: Shocking Blue - другие аккорды (52),   о группе (2 статей),   диски (11),   фотографии (75)
Табулатура песни: Keep It If You Want
Просмотров: 1624
Прислал: sabbath (sabbath54@mail.ru)




    
KEEP IT IF YOU WANT IT

Solo (played on saxophones)
E|-------------------------------|---------------------------------------|
H|-----5-8-----5-8-----5-8-5-7-5-|-----5-8-----5-8-----5-8-----5-8-5-7-5-|
G|-5-7-----5-7-----5-7-----------|-5-7-----5-7-----5-7-----5-7-----------|
D|-------------------------------|---------------------------------------|
A|-------------------------------|---------------------------------------|
E|-------------------------------|---------------------------------------|
E|-------------------------------|---------------------------------------|
H|-----5-8-----5-8-----5-8-5-7-5-|-----5-8-----5-8-----5-8-----5-8-5-7-5-|
G|-5-7-----5-7-----5-7-----------|-5-7-----5-7-----5-7-----5-7-----------|
D|-------------------------------|---------------------------------------|

Продолжаем грести бабос на ботах в Telegram.
Только в этот раз есть вариант автоматизировать это дело, привлекая рефералов. Вы можете заработать если »

A|-------------------------------|---------------------------------------| E|-------------------------------|---------------------------------------| E|-------------------------| H|-------------------------| G|-----------------3-2-1-0-| D|-5--5-3--3-1-------------| A|--------------3----------| E|-------------------------|

www.geocities.com/ofmang/shockingblue/







О сайтеАккордыХит-парадПоискУроки ФорумыИщу песню
ПрограммыСвежачок-сПодпискаСтатьи
Яндекс.Метрика