Табулатура Shocking Blue | Scorpio`s Dance (instrumental) гитара табулатуры уроки тексты песен Shocking Blue текст lyrics песня аккорды песни ноты нота электрогитара струна  
   А Б В Г Д Е Ж З И К Л М Н О П Р С Т У Ф Х Ч Ш Ы Э Ю Я       Разные песни
1-9 A B C D E F G H I J K L M N O P Q R S T U V W Y Z      Все исполнители

    



группа Shocking Blue, Табулатура песни Scorpio`s Dance (instrumental)

Группа: Shocking Blue - другие аккорды (52),   о группе (2 статей),   диски (11),   фотографии (75)
Табулатура песни: Scorpio`s Dance (instrumental)
Просмотров: 1456
Прислал: sabbath (sabbath54@mail.ru)




    
Scorpio's Dance (First Movement)
(from 1970 album "Scorpio's Dance")
Written by Robbie van Leeuwen

   Em
E|------------------------------------------------------------------------|
H|----------------------------------------------------------------------0-|
G|-0------------------------------------------------------------------0---|
D|-2--2-5^4--2-5^4--2-5^4--2-5^4--2-5^4--2-5^4--2-5^4--2-5^4--2-0---2-----|
A|-2----------------------------------------------------------------------|
E|-0--------------------------------------------------------------0-------|
   Em
E|--------------------------------------------------------------------3-|
H|----------------------------------------------------------------0-3---|
G|-0--------------------------------------------------------------0-----|
D|-2--2-5^4--2-5^4--2-5^4--2-5^4--2-5^4--2-5^4--2-5^4--2-5^4--2-0-------|
A|-2--------------------------------------------------------------------|
E|-0--------------------------------------------------------------------|
   Am

Продолжаем грести бабос на ботах в Telegram.
Только в этот раз есть вариант автоматизировать это дело, привлекая рефералов. Вы можете заработать если »

E|-0--------------------------------------------------------------| H|-1----1^0----1^0----1^0----1^0----1^0---1^0----1^0--------------| G|-2--------------------------------------------------------------| D|-2--2------2------2------2------2-----2------2-----2-4-5-4------| A|-0---------------------------------------------------2------2---| E|--------------------------------------------------------------3-| Em E|----------------------------------------------------------------------| H|--------------------------------------------------------------------0-| G|-0----------------------------------------------------------------0---| D|-2--2-5^4--2-5^4--2-5^4--2-5^4--2-5^4--2-5^4--2-5^4--2-5^4--2-0-2-----| A|-2--------------------------------------------------------------------| E|-0--------------------------------------------------------------------| ^ means legato

www.geocities.com/ofmang/shockingblue/







О сайтеАккордыХит-парадПоискУроки ФорумыИщу песню
ПрограммыСвежачок-сПодпискаСтатьи
Яндекс.Метрика