Аккорды Shocking Blue | I Follow The New Sun гитара табулатуры уроки тексты песен Shocking Blue текст lyrics песня аккорды песни ноты нота электрогитара струна  
   А Б В Г Д Е Ж З И К Л М Н О П Р С Т У Ф Х Ч Ш Ы Э Ю Я       Разные песни
1-9 A B C D E F G H I J K L M N O P Q R S T U V W Y Z      Все исполнители

    



группа Shocking Blue, Аккорды песни I Follow The New Sun

Группа: Shocking Blue - другие аккорды (52),   о группе (2 статей),   диски (11),   фотографии (75)
Аккорды песни: I Follow The New Sun
Просмотров: 2270
Прислал: sabbath (sabbath54@mail.ru)




    
I'll Follow The Sun
(from 1971 album "3rd Album")
Written by Robbie van Leeuwen
Intro
E|----------------------------------------------------------------|
H|----------------------------------------------------------------|
G|------------2-2-4-4-----6-6-----7-7-----------------------------|
D|--------------------2-2-----4-4-----8-8-9-9-------------3-3-4-4-|
A|-2-2-5-5-4-4--------------------------------8-8-4-4-5-5---------|
E|----------------------------------------------------------------|
E|---------|
H|---------|
G|---------| x8
D|---4-0-2-|
A|-2-------|
E|---------|

Hm
Hm
I'll follow the sun,
That's what I'm gonna do,
  D           E  F#         Hm
Trying to forget all about you.
I'll follow the sun
Till the end of time.

Продолжаем грести бабос на ботах в Telegram.
Только в этот раз есть вариант автоматизировать это дело, привлекая рефералов. Вы можете заработать если »

No more pain and no more tears for me. Hm D E F# Hm Hm D E F# Hm Cm C#m Dm Dm I'll follow the sun, Birds will show me how, F G A Dm 'Cause suddenly it seems my eyes are dry. I'll follow the sun Till I see the light. Apollo comes near when the time is right. Dm F G A Dm Dm F G A Dm Dm D#m Em Fm F#m Gm G#m Am Bm Hm Cm C#m Hm Hm I'll follow the sun, That's what I'm gonna do, D E F# Hm Trying to forget all about you. I'll follow the sun Till the end of time. No more pain and no more... --------------------------------------------------------------------------------

www.geocities.com/ofmang/shockingblue/
Тут
Продажа кондиционеров. Проектирование, монтаж, обслуживание кондиционеров
fors-service.ru







О сайтеАккордыХит-парадПоискУроки ФорумыИщу песню
ПрограммыСвежачок-сПодпискаСтатьи
Яндекс.Метрика