Аккорды Shocking Blue | The Bird Of Paradise гитара табулатуры уроки тексты песен Shocking Blue текст lyrics песня аккорды песни ноты нота электрогитара струна  
   А Б В Г Д Е Ж З И К Л М Н О П Р С Т У Ф Х Ч Ш Ы Э Ю Я       Разные песни
1-9 A B C D E F G H I J K L M N O P Q R S T U V W Y Z      Все исполнители

    



группа Shocking Blue, Аккорды песни The Bird Of Paradise

Группа: Shocking Blue - другие аккорды (52),   о группе (2 статей),   диски (11),   фотографии (75)
Аккорды песни: The Bird Of Paradise
Просмотров: 2330
Подобрал: sabbath (sabbath54@mail.ru)




    
The Bird Of Paradise
(from 1971 album "3rd Album")
Written by Robbie van Leeuwen
Intro
E|-------10-12-12-10-12-------------|-------10-12-12-10-12-------------|
H|-12-12------------------10-8-10-8-|-12-12------------------10-8-10-8-|
G|----------------------------------|----------------------------------|
D|----------------------------------|----------------------------------|
A|----------------------------------|----------------------------------|
E|----------------------------------|----------------------------------|
                     Em   A       Em                         A       Em
E|-------10-12-12-10-12---------10-12-12-10-12---10----------------|
H|-12-12------------------12-12---------------------12-10----------|
G|--------------------------------------------------------12-9-7-9-|
D|-----------------------------------------------------------------|
A|-----------------------------------------------------------------|
E|-----------------------------------------------------------------|
                                                       A         Em
E|------------------|
H|-/10--/10--8^10---|
G|----------------9-|
D|------------------|
A|------------------|
E|------------------|

Intro: Em A Em A Em A Em
Em  Hm       G
   One fine day
A         C             Em
 I had a long distance call,
                               Hm   G
I called my guy, he's waiting far away,
A            C                       H
 He said hello and I got that good feeling.
                     Em  A
And the bird of paradise
Em       A      Em   A
  Flew upon my nose.
Em         A           Em         A      Em

Продолжаем грести бабос на ботах в Telegram.
Только в этот раз есть вариант автоматизировать это дело, привлекая рефералов. Вы можете заработать если »

And the bird of paradise flew upon my nose, A Em A Em A Flew upon my nose. His voice was low And I heard him say, `Come, little baby, come, silly soul, You gotta know I need you so badly.' Em A And the bird of paradise Em A Em A Flew upon my nose. Em A Em A Em And the bird of paradise flew upon my nose, A Em A Em A Em C G Em Em C G Em Em C G Em Em C G Em Flew upon my nose. Solo chords: Em Hm G A C Em Em Hm G A C H E|---12-10-12-10-----10-12---------------------------| H|---------------12--------12----10--8-10-8---8-10---| G|------------------------------------------9------9-| D|---------------------------------------------------| A|---------------------------------------------------| E|---------------------------------------------------| Em Hm G A C Em E|---12-10-12-10-----10-12------------------------------------| H|---------------12--------12----10--8-10-8---8-10-10--7--8-7-| G|------------------------------------------9-----------------| D|------------------------------------------------------------| A|------------------------------------------------------------| E|------------------------------------------------------------| Em Hm G A C H And the bird of paradise Flew upon my nose. And the bird of paradise flew upon my nose, Flew upon my nose. --------------------------------------------------------------------------------

www.geocities.com/ofmang/shockingblue/







О сайтеАккордыХит-парадПоискУроки ФорумыИщу песню
ПрограммыСвежачок-сПодпискаСтатьи
Яндекс.Метрика